MUZBANK



A Most Complete Bank Of Music Information

МУЗЫКАЛЬНО-ИНФОРМАЦИОННЫЙ БАНК

Поиск по сайту







    IInme • Gelosea (аккорды и текст - chords & lyrics)


    269

    Print

    Видео «Gelosea (Inme)»

    Видео клипы к песне подбираются автоматически сайтом youtube. Возможны некоторые несоответствия клипов песне.

    ↑ Спрятать рекламу ↑



    Download


     
    
    
    well_endowed_dan2@hotmail.com, i got more inme tabs and loads more. contact me or
    add me if ya need anything.
    
    Intro:
    E------------------------------|
    B------------------------------|
    G------------------------------|
    D-0-0-0-0-11-0-0-0-0-12-0-0-12-|
    A-0-0-0-0-11-0-0-0-0-12-0-0-12-| x3 
    D-0-0-0-0-11-0-0-0-0-12-0-0-12-|  
    
    E--------------------------|
    B--------------------------|
    G--------------------------|
    D-0-0-0-0-11-0-4-0-1-1-1-1-|
    A-0-0-0-0-11-0-4-0-1-1-1-1-| x1 
    D-0-0-0-0-11-0-4-0-1-1-1-1-|    
                         
              
    
    
    
    Chorus:
    
    E-------------------|-------------------|
    B-------------------|-------------------|
    G-------------------|-6-6-6-------------|
    D-4-4-4-4-4-4-4-4-7-|-------6-6-6-6h7p6-|
    A-4-4-4-4-4-4-4-4-7-|-------------------|
    D-4-4-4-4-4-4-4-4-7-|-------------------|
    
    E---------------------------------|
    B---------------------------------|
    G---------------------------------|
    D-0-0-0-0-0-0-0-0-2-2-2-2-2-2-2-2-|
    A-0-0-0-0-0-0-0-0-2-2-2-2-2-2-2-2-|
    D-0-0-0-0-0-0-0-0-2-2-2-2-2-2-2-2-|
    
    E---------------------|-----------------|
    B---------------------|-----------------|
    G---------------------|-----------------|
    D-11-11-11-11-9-7/6-4-|-4-x-4-x-4-x-4-7-|
    A-11-11-11-11-9-7/6-4-|-4-x-4-x-4-x-4-7-|
    D-11-11-11-11-9-7/6-4-|-4-x-4-x-4-x-4-7-|
    
    E-------------------|-----------------
    B-------------------|-----------------
    G-6-6-6-------------|-----------------
    D-------6-6-6-6H7P6-|-0-0-0-0-0-0-0-0-
    A-------------------|-0-0-0-0-0-0-0-0-
    D-------------------|-0-0-0-0-0-0-0-0-
    
    E-----------------|---------------------|  
    B-----------------|---------------------|   
    G-----------------|---------------------|   
    D-2-2-2-2-2-2-2-2-|-11-11-11-11-9-7/6-4-|  
    A-2-2-2-2-2-2-2-2-|-11-11-11-11-9-7/6-4-|  
    D-2-2-2-2-2-2-2-2-|-11-11-11-11-9-7/6-4-|  
                                                  
                                               
    Part C:
    
    E-------------------------------|
    B-------------------------------| 
    G-------------------------------|  
    D-------------------------------|
    A-------0-0-0-------0-0-0-----0-| x3  
    D-2-2-2-------2-2-2-------2-2---|    
                                        
    
    Chorus 2:
    
    Its almost exactly the same except instead of ending with 1. 
    it ends with 2.
    
    1.                      2.
    
    E---------------------|  E----------------------|
    B---------------------|  B----------------------|
    G---------------------|  G----------------------|
    D-11-11-11-11-9-7/6-4-|  D-0-0-0-11-0-4-1-1-1-1-|
    A-11-11-11-11-9-7/6-4-|  A-0-0-0-11-0-4-1-1-1-1-|
    D-11-11-11-11-9-7/6-4-|  D-0-0-0-11-0-4-1-1-1-1-|
                                              | | |
                                               _ _
                                                |  
                             these last 3 notes strummed alot harder
     

    Тональность:

    Нет текста!



    Назад
    Рекомендуем посмотреть другие песни исполнителя «Inme»:

    • Комментарии Facebook ()
    • Комментарии ВКонтакте



    Добавить в Избранное Браузера
    Сохранить здесь Очистить


    x

    0


    +
    -

    +
    -

    -

    Авторизация





    Зарегистрироваться

    M

    Дата и время

    • 08:58:07
       

    Социальные ссылки


    Наши приложения

    • Muzbank App Play Market
    • Muzbank Amazon App