MUZBANK



A Most Complete Bank Of Music Information

МУЗЫКАЛЬНО-ИНФОРМАЦИОННЫЙ БАНК

Поиск по сайту







    IInner Circle • Summer Jammin (аккорды и текст - chords & lyrics)


    237

    Print

    Видео «Summer Jammin (Inner Circle)»

    Видео клипы к песне подбираются автоматически сайтом youtube. Возможны некоторые несоответствия клипов песне.

    ↑ Спрятать рекламу ↑



    Download


     
    
    
    Band: Inner Circle 
    Song: Summer Jammin
    Genre: Reggae
    Tabbed by Daniel Schaub @ www.schaubi.de.vu
    
    Intro ending:
    E|----10>>>
    
    Chorus:                                              x3
    H |------------|----------|-------------|-------------|
    G |-------8-12-|-----7-10-|-------10-13-|-------10-13-|
    A |-10-10------|-8-8------|-11-11-------|-11-11-------|
    E |------------|----------|-------------|-------------|
    
    H |-------------|-------------------------|
    G |-------------|-------------------------|
    A |-10-10-10-10-|-10-10---8-8---6-6---5>>>|
    E |-------------|-------------------------|
    
    Short Chorus:                                        x2
    H |------------|----------|-------------|-------------|
    G |-------8-12-|-----7-10-|-------10-13-|-------10-13-|
    A |-10-10------|-8-8------|-11-11-------|-11-11-------|
    E |------------|----------|-------------|-------------|
    
    Verse -> (3213311333213311)
    
      3             2             1
    H |-------------|-------------|-------------|
    G |-------12-15-|-------10-13-|-------------|
    A |-13-13-------|-11-11-------|-------10-13-|
    E |-------------|-------------|-11-11-------|
    
    -> Intro
    -> Chorus
    -> Verse
    -> short Chorus
    -> break          !without bass! (the people 

    Тональность:

    Нет текста!



    Назад
    Рекомендуем посмотреть другие песни исполнителя «Inner Circle»:

    • Комментарии Facebook ()
    • Комментарии ВКонтакте



    Добавить в Избранное Браузера
    Сохранить здесь Очистить


    x

    0


    +
    -

    +
    -

    -

    Авторизация





    Зарегистрироваться

    M

    Дата и время

    • 06:10:32
       

    Социальные ссылки


    Наши приложения

    • Muzbank App Play Market
    • Muzbank Amazon App