MUZBANK



A Most Complete Bank Of Music Information

МУЗЫКАЛЬНО-ИНФОРМАЦИОННЫЙ БАНК

Поиск по сайту







    IIron Maiden • The Evil That Men Do (аккорды и текст - chords & lyrics)


    324

    Print

    Видео «The Evil That Men Do (Iron Maiden)»

    Видео клипы к песне подбираются автоматически сайтом youtube. Возможны некоторые несоответствия клипов песне.

    ↑ Спрятать рекламу ↑



    Download


     
    
    
    Iron Maiden
    The Evil That Men Do
    7th Son Of A 7th Son
    
    Intro
    ---------------------------------|
    ---------------------------------|
    --------12----14-16-14-12-14-16--|
    --12-14----14--------------------|
    ---------------------------------|
    ---------------------------------|
    
    ------------------------------------|
    ------------------------------------|
    --------12----14-16-14-12-14-16-----|
    --12-14----14-------------------14--|
    ------------------------------------|
    ------------------------------------|
    
    ------------------------------------|
    ------------------------------------|
    --------12----14-16-14-12-14-16-14--|
    --12-14----14-----------------------|
    ------------------------------------|
    ------------------------------------|
    
    ----------------|
    --15-17-15--12--|
    ----------------|
    ----------------|
    ----------------|
    ----------------|
    
    ------------------------------------|
    ------------------------------------|
    --------12----14-16-14-12-14-16-----|
    --12-14----14-------------------14--|
    ------------------------------------|
    ------------------------------------|
    
    ---------------------------------|
    ---------------------------------|
    --------12----14-16-14-12-14-16--|
    --12-14----14--------------------|
    ---------------------------------|
    ---------------------------------|
    
    ------------------------------------|
    ------------------------------------|
    --------12----14-16-14-12-14-16-----|
    --12-14----14-------------------14--|
    ------------------------------------|
    ------------------------------------|
    
    Verse
    -----------------------------------|
    -----------------------------------|
    --9-9-9-9-9-9-9-9-5-5-5-5-5-5-5-5--|
    --9-9-9-9-9-9-9-9-5-5-5-5-5-5-5-5--|
    --7-7-7-7-7-7-7-7-3-3-3-3-3-3-3-3--|
    -----------------------------------|
    
    Pre Chorus
    ----------------|--------------------|
    ----------------|--------------------|
    --9---5-------7-|-9---5-------7---5--|
    --9---5---5---7-|-9---5---5---7---5--|
    --7---3---5---5-|-7---3---5---5---3--|
    ----------3-----|---------3----------|
    
    -----------------|
    -----------------|
    --4-2-0---0-2----|
    --------4--------|
    --------------3--|
    -----------------|
    
    -------------------------|
    -------------------------|
    -------------------------|
    ------5---7-9-7-5-7-9----|
    --5-7---7-------------7--|
    -------------------------|
    
    -------------------|
    -------------------|
    --------------7-9--|
    -------7-9-10------|
    --7-10-------------|
    -------------------|
    
    Chorus
    --------------|
    --------------|
    --9-----5--7--|
    --9-----5--7--|
    --7-----3--5--|
    --------------|
    
    Verse
    -----------------------------------|
    -----------------------------------|
    --9-9-9-9-9-9-9-9-5-5-5-5-5-5-5-5--|
    --9-9-9-9-9-9-9-9-5-5-5-5-5-5-5-5--|
    --7-7-7-7-7-7-7-7-3-3-3-3-3-3-3-3--|
    -----------------------------------|
    
    Pre Chorus
    ----------------|--------------------|
    ----------------|--------------------|
    --9---5-------7-|-9---5-------7---5--|
    --9---5---5---7-|-9---5---5---7---5--|
    --7---3---5---5-|-7---3---5---5---3--|
    ----------3-----|---------3----------|
    
    -----------------|
    -----------------|
    --4-2-0---0-2----|
    --------4--------|
    --------------3--|
    -----------------|
    
    -------------------------|
    -------------------------|
    -------------------------|
    ------5---7-9-7-5-7-9----|
    --5-7---7-------------7--|
    -------------------------|
    
    -------------------|
    -------------------|
    --------------7-9--|
    -------7-9-10------|
    --7-10-------------|
    -------------------|
    
    Chorus
    --------------|
    --------------|
    --9-----5--7--|
    --9-----5--7--|
    --7-----3--5--|
    --------------|
    
    Solo
    -------------------|
    -------------------|
    -------------------|
    ----4-5-4-5-4-0----|
    --7-------------7--|
    -------------------|
    
    -------------------|
    -------------------|
    -------------------|
    --0-2-4-2-4-2------|
    --------------4-5--|
    -------------------|
    
    --14--14-16-17-16-14--|
    ----------------------|
    ----------------------|
    ----------------------|
    ----------------------|
    ----------------------|
    
    --14--------------------|
    -----17----17-----------|
    --------16----16--------|
    -----------------16-----|
    --------------------14--|
    ------------------------|
    
    ------------------------------------|
    ------------------------------------|
    ------------------------------------|
    --------------------12-11-------14--|
    --12-11----14-12-11-------14-12-----|
    --------14--------------------------|
    
    --------------------12-----|
    ---------------------------|
    --------11-10----13----13--|
    --12-----------------------|
    -----14--------------------|
    ---------------------------|
    
    --------------12----------------12----------------12--------|
    -----10----10----10----10----10----10----10----10----10-----|
    --10----10----------10----10----------10----10----------10--|
    ------------------------------------------------------------|
    ------------------------------------------------------------|
    ------------------------------------------------------------|
    
    ------------------------------|
    --17----17-16-----------------|
    -----16-------16----14--------|
    -----------------16----14-----|
    --------------------------16--|
    ------------------------------|
    
    --19-17-16-17-16-17-16-14-16-14-16-14----14-----------------|
    --------------------------------------17----17-14-----------|
    --------------------------------------------------16-14-12--|
    ------------------------------------------------------------|
    ------------------------------------------------------------|
    ------------------------------------------------------------|
    
    Pre Chorus
    -------------------------|
    -------------------------|
    -------------------------|
    ------5---7-9-7-5-7-9----|
    --5-7---7-------------7--|
    -------------------------|
    
    -------------------|
    -------------------|
    --------------7-9--|
    -------7-9-10------|
    --7-10-------------|
    -------------------|
    
    Chorus
    --------------|
    --------------|
    --9-----5--7--|
    --9-----5--7--|
    --7-----3--5--|
    --------------|
    
    Outro
    -------------------|
    -------------------|
    --9-9--9-9---5--7--|
    --9-9--9-9---5--7--|
    --7-7--7-7---3--5--|
    -------------------|
    
    -------------------|
    -------------------|
    -------------------|
    ----4-5-4-5-4-0----|
    --7-------------7--|
    -------------------|
     

    Тональность:

    Нет текста!



    Назад
    Рекомендуем посмотреть другие песни исполнителя «Iron Maiden»:

    • Комментарии Facebook ()
    • Комментарии ВКонтакте



    Добавить в Избранное Браузера
    Сохранить здесь Очистить


    x

    0


    +
    -

    +
    -

    -

    Авторизация





    Зарегистрироваться

    M

    Дата и время

    • 05:33:43
       

    Социальные ссылки


    Наши приложения

    • Muzbank App Play Market
    • Muzbank Amazon App