MUZBANK



A Most Complete Bank Of Music Information

МУЗЫКАЛЬНО-ИНФОРМАЦИОННЫЙ БАНК

Поиск по сайту







    JJack Off Jill • Yellow Brick Road (аккорды и текст - chords & lyrics)


    329

    Print

    Видео «Yellow Brick Road (Jack Off Jill)»

    Видео клипы к песне подбираются автоматически сайтом youtube. Возможны некоторые несоответствия клипов песне.

    ↑ Спрятать рекламу ↑



    Download


     
    
    
    Yellow Brick Road (guitar)
    by Jack Off Jill
    Tabbed by Ottis (GoblinKing9@yahoo.com)
    
    e-----------------
    B-----------------
    G--0-0-0-0-0-0---- [etc.]
    D-----------------
    A-----------------
    E-----------------
      Verse
    
    e---------------
    B---------------
    G-----5--4--7---
    D--7--5--4--7---
    A--7--3--2--5---
    E--5------------
      Chorus
    
    e----------------------------------------------------------------
    B----------------------------------------------------------------
    G---------------------------------------------------------12-12--
    D--------------7--------------7--------------7------------12-12--
    A--------------7--------------7--------------7------------10-10--
    E---0-0-0-0-0--5---0-0-0-0-0--5---0-0-0-0-0--5---0-0-0-0---------
      Ending
     

    Тональность:

    Нет текста!



    Назад
    Рекомендуем посмотреть другие песни исполнителя «Jack Off Jill»:

    • Комментарии Facebook ()
    • Комментарии ВКонтакте



    Добавить в Избранное Браузера
    Сохранить здесь Очистить


    x

    0


    +
    -

    +
    -

    -

    Авторизация





    Зарегистрироваться

    M

    Дата и время

    • 11:13:30
       

    Социальные ссылки


    Наши приложения

    • Muzbank App Play Market
    • Muzbank Amazon App