MUZBANK



A Most Complete Bank Of Music Information

МУЗЫКАЛЬНО-ИНФОРМАЦИОННЫЙ БАНК

Поиск по сайту







    JJane Air • Пуля (аккорды и текст - chords & lyrics)


    387

    Print

    Видео «Пуля (Jane Air)»

    Видео клипы к песне подбираются автоматически сайтом youtube. Возможны некоторые несоответствия клипов песне.

    ↑ Спрятать рекламу ↑



    Download


    Вступление: H H C H H C H C C
    H                   C
    Попал на деньги, Бывает
    Жизнь не игра, Смотря кто играет
    На тебя не ставлю Не обижайся
    Ты и сам бы не поставил Признайся
    Звонок другу Помощь зала
    Подсказок не осталось Сумма пропала
    Беги, Просто беги
    Тебе дали фору Не тормози
    
    H C D 
    Беги! Пуля летит долго!
    
    Куришь дни Как последние сиги
    Дешевый герой Дешевой книги
    Тебе Осталось так мало
    Начать и закончить Сигарета упала
    На землю Едва коснулась
    Открыла глаза, От страха проснулась
    Беги, Просто беги
    Тебе дали фору Не тормози
    
    Беги! Пуля летит долго!
    
    Где-то есть место Где не найдут
    Только где оно, Там или тут
    Кончились карты, Крапленые остались
    Играешь честно Перестарались
    Можно увозить, Не жилец
    Ты еле живой, Тебе пиздец
    Но ты еще пока остаешься в игре
    Это только пока
    
    
    Вступление:
    --0---0-1--0--1--0-1---1-- --0---0-1--0--1--0-1---1---1- 
    
    Связка:
    ---------
    ---------
    ---------
    --0-0-0--
    --0-0-0--
    --0-0-0--
    Проигрыш1:
    --------------------------------------------------------
    --------------------------------------------------------
    --------------------------------------------------------
    --0---0-1--0--1--0-1---1-----0---0-1--0--1--0-1---1---1-
    --0---0-1--0--1--0-1---1-----0---0-1--0--1--0-1---1---1-
    --0---0-1--0--1--0-1---1-----0---0-1--0--1--0-1---1---1- 
    Куплет:
    ------------------------------
    ------------------------9----- 
    ----8----8-9-8-----8------9-8-
    -6-----6--------6-----6-------
    ------------------------------
    ------------------------------
    Припев:
    ------------------
    ------------------
    ------------------
    0--1--3--0-0--1--3  
    0--1--3--0-0--1--3
    0--1--3--0-0--1--3
    
    Проигрыш2 (После 2 припева):
    ---------------------------------------
    ---------------------------------------
    -9---9-10---10-9---9-10--14-14-14--10--
    ---------------------------------------   
    -8---8-9----9--8---8-9---13-13-13--9---
    ---------------------------------------
    Беги! Пуля летит долго!

    Тональность:

    Отправитель: копипастер

    Нет текста!



    Назад
    Рекомендуем посмотреть другие песни исполнителя «Jane Air»:

    • Комментарии Facebook ()
    • Комментарии ВКонтакте



    Добавить в Избранное Браузера
    Сохранить здесь Очистить


    x

    0


    +
    -

    +
    -

    -

    Авторизация





    Зарегистрироваться

    M

    Дата и время

    • 07:03:42
       

    Социальные ссылки


    Наши приложения

    • Muzbank App Play Market
    • Muzbank Amazon App