MUZBANK



A Most Complete Bank Of Music Information

МУЗЫКАЛЬНО-ИНФОРМАЦИОННЫЙ БАНК

Поиск по сайту







    JJebediah • Harpoon (аккорды и текст - chords & lyrics)


    233

    Print

    Видео «Harpoon (Jebediah)»

    Видео клипы к песне подбираются автоматически сайтом youtube. Возможны некоторые несоответствия клипов песне.

    ↑ Спрятать рекламу ↑



    Download



     
    
    
    SONG/HARPOON
    BAND/JEBEDIAH
    troygrech@hotmail.com
    
    INTRO
    G:-----------------------
    D:-----------------------
    A:-----------------------
    E:7---0h2---2/77---00-2/-
    
    VERSE
    G:-------------------|------------------
    D:----------------22-|--------------224-
    A:------------------4|------------------
    E:77/14--22--000-----|77/14--22--000----
    
    CHORUS
    G:------------|---------------------
    D:------------|---------------------
    A:--77h9--44p2|--77h9--77h9--77h9---
    E:44----77----|44----44----44----7/-
    
    middle bit
    G:----------------------------------------------|----*3-|----
    D:----------------------------------------------|-------|----
    A:----------------------------------------------|----14-|----
    E:0--0h2--2/77--0--0h2--2/77--0--0h2--2/77--002-|775/---|775-
    
    bridge
    G:-----------------
    D:-----------------
    A:----444422-------
    E:4400------002222-
    
    G:---------------------------------------------------
    D:-----------------1---------1---------1-------------
    A:----444422------2-2---1---2-2---1---2-2----1-4p21--
    E:4400------002200---002-200---002-200---0022-2----2-
     

    Тональность:

    Нет текста!



    Назад
    Рекомендуем посмотреть другие песни исполнителя «Jebediah»:

    • Комментарии Facebook ()
    • Комментарии ВКонтакте



    Добавить в Избранное Браузера
    Сохранить здесь Очистить


    x

    0


    +
    -

    +
    -

    -

    Авторизация





    Зарегистрироваться

    M

    Дата и время

    • 15:17:54
       

    Социальные ссылки


    Наши приложения

    • Muzbank App Play Market
    • Muzbank Amazon App