MUZBANK



A Most Complete Bank Of Music Information

МУЗЫКАЛЬНО-ИНФОРМАЦИОННЫЙ БАНК








    JJebediah • Leaving Home (аккорды и текст - chords & lyrics)


    248

    Print

    Видео «Leaving Home (Jebediah)»

    Видео клипы к песне подбираются автоматически сайтом youtube. Возможны некоторые несоответствия клипов песне.

    ↑ Спрятать рекламу ↑





     
    
    
    Band Name: Jebediah
    Song Title: Leaving Home
    Album: Slightly Oddway
    Tabbed by: Clarko
    
    ~~~~~~~~~~~~~~~~~~~~Verse~~~~~~~~~~~~~~~~~~~~~ 
    
    G |---------------------------------| (x2)
    D |---------------------------------|
    A |------2-2-4-2-1-4-6-6-----2-2----|
    E |-2-2------------------4-4-----2--|
    
    G |------------------| (x3)
    D |------------------|
    A |-----------2-2----|
    E |-4-4-4-4-4-----2--|
    
    G |--------------------------|
    D |--------------------------|
    A |---------2-2-2------------|
    E |-4-4-4-4-------0-0-0-0-0--|
    
    
    ~~~~~~~~~~~~~~~~~~~~~Chorus~~~~~~~~~~~~~~~~~~~~~
    
    G |-----------------| (x3)
    D |-----------------|
    A |-----2-2-1-1-6-6-|
    E |-2-2-------------|
    
    G |-------------------|
    D |-------------------|
    A |-1-1-1-1-2-2-2/5---|
    E |-----------------2-|
    
    ~~~~~~~~~~~~~~~~~~~~~~~~~~~~~~~~~~~~~~~~~~~~~~~~~
    Thats it! hell easy.
    
    Tabbed by: Clarko 
    email: bornthatway@hotmail.com
     

    Тональность:

    Нашли ошибку?



    Назад
    Рекомендуем посмотреть другие песни исполнителя «Jebediah»:

    • Комменты Fb ()
    • Комменты ВК



    Добавить в Избранное Браузера
    Сохранить здесь Очистить


    x

    0


    +
    -

    +
    -

    -

    Авторизация





    Зарегистрироваться

    M

    Дата и время

    • 23:16:08
       

    Социальные ссылки


    Наши приложения

    • Muzbank App Play Market
    • Muzbank Amazon App