MUZBANK



A Most Complete Bank Of Music Information

МУЗЫКАЛЬНО-ИНФОРМАЦИОННЫЙ БАНК

Поиск по сайту







    JJet • Cold Hard Bitch (аккорды и текст - chords & lyrics)


    203

    Print

    Видео «Cold Hard Bitch (Jet)»

    Видео клипы к песне подбираются автоматически сайтом youtube. Возможны некоторые несоответствия клипов песне.

    ↑ Спрятать рекламу ↑



    Download



     
    
    
    Jet- Cold hard bitch
    Get born
    Tabbed by Ray
    
    Should be 100%, got it from Guitar One magazine
    Thanks Guitar One
    
    Intro Guitar 1: (Through entire intro guitar one palm mute A string)
    e|--------------------------------------------|
    B|--------------------------------------------|
    G|--------------------------------------------|
    D|-7~-----------------------------------------|
    A|-0~-------0-0-0-0-0-0-0-0-0-0-0-0-0-0-0-0-0-|
    E|--------------------------------------------|
    
    e|-------------------------------|
    B|-------------------------------|
    G|-----7---------7---7-----------|
    D|-----7---------7-7-7-7---7-----|
    A|-0-0---0-0-0-0-----------0-0-0-|
    E|-------------------------------|
    
    Part 2
    e|------------------------------------|
    B|------------------------------------|
    G|------7----------7---7--------------|
    D|------7---7------7-7-7-7---7--------|
    A|0-0-0---0-0-0-0----------0-0-0-0-3--|
    E|------------------------------------|
    Repeat the part 2 four times
    
    Intro Guitar 2:
    e|---------|
    B|---------|
    G|---------|
    D|-2-4-2-4-|
    A|-0-0-0-0-|
    E|---------|(Play a few seconds before Guitar 1 comes in with the part 2)
    
    e|----------------------------|
    B|----------------------------|
    G|----------------------------|
    D|-5--4--2-4-2--5--4--2-4-2-4-|
    A|-0--0--0-0-0--0--0--0-0-0-0-|
    E|----------------------------|3x
    
    e|-----------------------|
    B|--------------3-3------|
    G|--------------2-2--2-2-|
    D|---5--4--2-4--0-0--2-2-|
    A|---0--0--0-0-------0-0-|
    E|-----------------------|
    
    Both Guitars:
    e|-3-|
    B|-3-|
    G|-0-|
    D|-0-|
    A|-X-|
    E|-3-| Play a lot
     Yeah!
    
    e|-------------------|
    B|-----------------3-|
    G|-2--2-2----------2-|
    D|-2--2-2----------0-|
    A|-0--0-0------------|
    E|---------0-3-0-3---|3X
    
    e|-----------------|
    B|-----------------|
    G|-2--2-2----------|
    D|-2--2-2----------|
    A|-0--0-0----------|
    E|---------0-3-0-3-|
    
    Verse: (both guitars)
    e|---------------------------------3-------|
    B|---------------------------------3---3---|
    G|-2-------------------------------0---2---|
    D|-2-------------------------------0---0---|
    A|-0-------------------------------x-------|
    E|---------------------------------3-------|
       Gotta leave town, got another apointment
    
    e|-----------------|
    B|-----------------|
    G|-2--2-2----------|
    D|-2--2-2----------|
    A|-0--0-0----------|
    E|---------0-3-0-3-|
    
    e|--------------------------------------3---------|
    B|--------------------------------------3-----3---|
    G|-2------------------------------------0-----2---|
    D|-2------------------------------------0-----0---|
    A|-0------------------------------------x---------|
    E|--------------------------------------3---------|
       Spent all my rent, girl you know i enjoyed it, yeah!
    
    e|----------------------------------------------------|
    B|--3~------------------------------------------------|
    G|--2~let ring----------------------------------------|
    D|--0~------------------------------------------------|
    A|----------------------------------------------------|
    E|--------------------------------------------0--0-0--|
        Gonna hang around till theres nobody dancin, I dont
    
    e|---------------------------3---------------------------|
    B|---------------------------3---------------------------|
    G|---------------------------0-----------------------0-0-|
    D|-2-------------------------0-----------------------0-0-|
    A|-2-------------------------x-----------------------0-0-|
    E|-0--------------------0----3---------------------------|
       wanna hold hands and talk about our little plans, alright!
    
    e|---------------------------------|
    B|-3--3--3--3-3-3-3--3--3--3-3-3-3-|
    G|-2--2--2--0-2-0-2--0--2--0-2-2-0-|
    D|-0--0--0--x-0-x-0--x--0--x-0-0-x-|
    A|----------3---3----3-----3-----3-|
    E|---------------------------------|
    
    Chorus: (Both guitars)
    e|----------------------------3-------------------3-------|
    B|----------------------------3-------------------3-----3-|
    G|-2-----------------2--------0-------------------0-----2-|
    D|-2-----------------2--------0-------------------0-----0-|
    A|-0-----------------0--------x-------------------x-------|
    E|----------------------------3-------------------3-------|
       Cold hard bitch, shes just a kiss on the lips, and I was
    
    e|---------------------------------|
    B|-3-------------------------------|
    G|-2-------------------------------|
    D|-0---------------3---3----5----5-|
    A|-----------------3---3----5----5-|
    E|--------------0--1-0-1-0--3----3-| Repeat once
       on my knees, Im waiting, give me
    
    Interlude 1:
    e|----------------------------------|
    B|--------------------------------3-|
    G|--2---2-2---2-2---2-2-----------2-|
    D|--2---2-2---2-2---2-2-----------0-|
    A|----------------------------------|
    E|------------------------0-3-0-3---|
    Repeat verse
    Repeat chorus
    
    Interlude 2:
    e|----3---3--------------------|
    B|----3---3--3---3-------------|
    G|-2--0---0--2---2-----2-------|
    D|-2--0---0--0---0-----2-------|
    A|-0--x---x------------0-------|
    E|----3---3--------0-3---0-3-0-|Repeat 6x
    
    Repeat Intro again, except start with guitar 2
    Repeat chorus
    
    Enjoy
     

    Тональность:

    Нет текста!



    Назад
    Рекомендуем посмотреть другие песни исполнителя «Jet»:

    • Комментарии Facebook ()
    • Комментарии ВКонтакте



    Добавить в Избранное Браузера
    Сохранить здесь Очистить


    x

    0


    +
    -

    +
    -

    -

    Авторизация





    Зарегистрироваться

    M

    Дата и время

    • 14:46:23
       

    Социальные ссылки


    Наши приложения

    • Muzbank App Play Market
    • Muzbank Amazon App