MUZBANK



A Most Complete Bank Of Music Information

МУЗЫКАЛЬНО-ИНФОРМАЦИОННЫЙ БАНК

Поиск по сайту







    JJets To Brazil • Perfecting Loneliness (аккорды и текст - chords & lyrics)


    250

    Print

    Видео «Perfecting Loneliness (Jets To Brazil)»

    Видео клипы к песне подбираются автоматически сайтом youtube. Возможны некоторые несоответствия клипов песне.

    ↑ Спрятать рекламу ↑



    Download


     
    
    
    Jets To Brazil - Perfecting Loneliness
    
    By: Thierry Van Lee (devourment666@hotmail.com) 
    > = play 8 times 
    
    intro verse 
            
    G|----------------|----------------|----------------|----------------| 
    D|----------------|----------------|----------------|----------------| 
    A|-------24-4-4-42|-------244444202|-------24-4-4-42|-------244444202| 
    E|4-4-4-4---------|4-4-4-4---------|4-4-4-4---------|4-4-4-4---------| 
    
    pre-chorus 
            
    G|----------------|----------------|----------------|----------------| 
    D|----------------|----------------|---------6-66-6-|----------------| 
    A|-------24-4-4-42|-------244444444|2-2-2-2-4-4--4-4|2-2-2-2-00000000| 
    E|4-4-4-4---------|4-4-4-4---------|----------------|----------------| 
    
    after 
        
    G|----------------|---------6-8-9-11|------------|-----------------| 
    D|----------------|-----------------|-play verse-|-play pre-chorus-| 
    A|-------24-4-4-42|-------24-6-7-9--|------------|-----------------| 
    E|4-4-4-4---------|4-4-4-4----------|------------|-----------------| 
    
    chorus1 
            
    G|----------------|----------------|----------------|----------------| 
    D|----------------|--------------66|----------------|----------------| 
    A|0>--------------|4>------007799--|0>--------------|4>------007799--| 
    E|--------0>------|----------------|--------0>------|----------------| 
    
    after chorus 
        
    G|----------------|----------------|------------|-----------------| 
    D|----------------|----------------|-play verse-|-play pre-chorus | 
    A|--R-----4-4-4-42|-------244667799|------------|-----------------| 
    E|----------------|4-4-4-4---------|------------|-----------------| 
    
    chorus2 
            
    G|----------------|----------------|----------------|----------------| 
    D|----------------|--------------66|----------------|----------------| 
    A|0>--------------|4>------007799--|0>--------------|4>------0>------| 
    E|--------0>------|----------------|--------0>------|----------------| 
    
    chorus3 
          x2 
    G|----------------||----------------|----------------|| 
    D|--------6>------||----------------|----------------|| 
    A|----------------||7777----4>------|7777------------|| 
    E|4>--------------||----7777--------|----77775>------|| 
    
    after chorus 3 
            
    G|----------------|----------------|----------------|-----------------| 
    D|----------------|----------------|----------------|-----------------| 
    A|----------------|----------------|--------0-0-0-0-|---------0>------| 
    E|4>------5>------|4>------5>------|0-0-0-0---------|4>---------------| 
    
          
    G|----------------|----------------|----------------| 
    D|----------------|--------------9-|----------------| 
    A|-----22-0-0-0-0-|--------000000--|7---------------| 
    E|0-0-0-----------|4>--------------|----------------| 
    
    ending1 
            x2 
    G|----------------|----------------|----------------|----------------| 
    D|--9--99---9--99-|--6--66---4--44-|----------------|----------------| 
    A|7---7---6---6---|4---4---2---2---|1>------1>------|0>------0>------| 
    E|----------------|----------------|----------------|----------------| 
    
    ending2 
            
    G|----------------|----------------|----------------|----------------| 
    D|----------------|----------------|----------------|----------------| 
    A|7---------------|--------7-------|4-------3-------|2-------0-------| 
    E|--------2-------|5---------------|----------------|----------------| 
    x3 
        
    G|----------------|----------------| 
    D|----------------|----------------| 
    A|0-------3-------|7---------------| 
    E|----------------|---------0------| 
    
    ===============================================================================
     

    Тональность:

    Нет текста!



    Назад
    Рекомендуем посмотреть другие песни исполнителя «Jets To Brazil»:

    • Комментарии Facebook ()
    • Комментарии ВКонтакте



    Добавить в Избранное Браузера
    Сохранить здесь Очистить


    x

    0


    +
    -

    +
    -

    -

    Авторизация





    Зарегистрироваться

    M

    Дата и время

    • 10:03:50
       

    Социальные ссылки


    Наши приложения

    • Muzbank App Play Market
    • Muzbank Amazon App