MUZBANK



A Most Complete Bank Of Music Information

МУЗЫКАЛЬНО-ИНФОРМАЦИОННЫЙ БАНК

Поиск по сайту







    JJimmy Eat World • A Praise Chorus (аккорды и текст - chords & lyrics)


    212

    Print

    Видео «A Praise Chorus (Jimmy Eat World)»

    Видео клипы к песне подбираются автоматически сайтом youtube. Возможны некоторые несоответствия клипов песне.

    ↑ Спрятать рекламу ↑



    Download


     
    
    
    -------------------------------------------------------------------------------
    			    A Praise Chorus - Jimmy Eat World
    -------------------------------------------------------------------------------
    Tabbed By : Jacob Green
    e-mail: revelation45@hotmail.com
    
    Tuning:D A D G
    
    verse
    G|----|--|----------------------|--|
    D|----|2x|----------------------|2x|
    A|-0--|--|-0-0-2-4-0-0-2-2h4h2--|--|
    D|---4|--|---------------------4|--|
    
    chorus
    G|---------------------------------|--|----------------------------------------
    D|---------------------------------|2x|----------------------------------------
    A|---------------------------------|--|----------------------------------------
    D|-00-000-022-222-244-444-444-444-4|--|00-000-022-222-2-4-2-00-000-000-000-022-
    
    G|------|
    D|------|
    A|-----0|
    D|-222--|
    
    bridge 4x
    G|--------|
    D|--------|
    A|-0-----0|
    D|---2-4--|
    
    outro
    G|-------------------------------------------------------|
    D|-------------------------------------------------------|
    A|---------------------------------------------0-0-------|
    D|-0-2-4-0-2-4-0-2-4-2-0-2-4-0-2-4-0-2-4-2-0-2--------2/7|
    
    
    For the outro, bridge and the beginning of the verse play each note 
    multiple times.  
    ===============================================================================
     

    Тональность:

    Нет текста!



    Назад
    Рекомендуем посмотреть другие песни исполнителя «Jimmy Eat World»:

    • Комментарии Facebook ()
    • Комментарии ВКонтакте



    Добавить в Избранное Браузера
    Сохранить здесь Очистить


    x

    0


    +
    -

    +
    -

    -

    Авторизация





    Зарегистрироваться

    M

    Дата и время

    • 01:03:49
       

    Социальные ссылки


    Наши приложения

    • Muzbank App Play Market
    • Muzbank Amazon App