MUZBANK



A Most Complete Bank Of Music Information

МУЗЫКАЛЬНО-ИНФОРМАЦИОННЫЙ БАНК

Поиск по сайту







    JJj72 • 7th Wave (аккорды и текст - chords & lyrics)


    231

    Print

    Видео «7th Wave (Jj72)»

    Видео клипы к песне подбираются автоматически сайтом youtube. Возможны некоторые несоответствия клипов песне.

    ↑ Спрятать рекламу ↑



    Download


     
    
    
    Tabbed by gerry
    
    If you have any corrections to make on this tab please e-mail me. Also, 
    please e-mail any pictures or thoughts you have on the band....esp Hilary
    *************************i_am_jj72@hotmail.com***************************
    
    7TH Wave, by jj72
    VERSE 1 
    
    e||-------------------------------------------------------------------|
    B||-------------------------------------------------------------------|
    G||-5--5--5---5--5--5--5---5--5--5---5--5--5--5-----------------------|
    D||-5--5--5---5--5--5--5---5--5--5---5--5--5--5-----------------------|
    A||-3--3--3---3--3--3--3---2--2--2---3--3--3--3-----------------------|
    E||-------------------------------------------------------------------|
    
    
    e||-------------------------------------------------------------------------|
    B||-------------------------------------------------------------------------|
    G||-12-12-12--7--11-11-11-11-11-11-11---14-14-14--16--14--12-12-12--7-7-7-7-|
    D||-12-12-12--7--11-11-11-11-11-11-11---14-14-14--16--14--12-12-12--7-7-7-7-|
    A||-10-10-10--5---9--9--9--9--9--9--9---12-12-12--14--12--10-10-10--5-5-5-5-|
    E||-------------------------------------------------------------------------|
    
    
    e||---------------------------------------------------------------------------|
    B||---------------------------------------------------------------------------|
    G||-12-12-12-12-12----------------------------11-11-11-11-11------------------|
    D||-12-12-12-12-12--10-10-10-10-10-10-10-10---11-11-11-11-11--9-9-9-9-9-9-9-9-|
    A||-10-10-10-10-10--10-10-10-10-10-10-10-10----9--9--9--9--9--9-9-9-9-9-9-9-9-|
    E||------------------8--8--8--8--8--8--8--8-------------------7-7-7-7-7-7-7-7-|
    
    
    e||------------------------------------------------------------------------|
    B||------------------------------------------------------------------------|
    G||-16-16-16-16-16--17-17-17-17-17-17----11-11-11-11-11--12-12-12-12-12-12-|
    D||-16-16-16-16-16--17-17-17-17-17-17----11-11-11-11-11--12-12-12-12-12-12-|
    A||-14-14-14-14-14--15-15-15-15-15-15-----9--9--9--9--9--10-10-10-10-10-10-|
    E||------------------------------------------------------------------------|
    
    
    
    e||-----------------------------------------------------------------------------------|
    B||-----------------------------------------------------------------------------------|
    G||-14--12--11--12--12---16--18--14--16--16---14--12--11--12--12---16--18--14--16--16-|
    D||-14--12--11--12--12---16--18--14--16--16---14--12--11--12--12---16--18--14--16--16-|
    A||-12--10---9--10--10---14--16--12--14--14---12--10---9--10--10---14--16--12--14--14-|
    E||-----------------------------------------------------------------------------------|
    
    
    e||-----------------------------------------------------------------------|
    B||-----------------------------------------------------------------------|
    G||-16--18--14--16--16---11-11-11-11-11-11-11-11--12-12-12-12-12-12-12-12-|
    D||-16--18--14--16--16---11-11-11-11-11-11-11-11--12-12-12-12-12-12-12-12-|
    A||-14--16--12--14--14----9--9--9--9--9--9--9--9--10-10-10-10-10-10-10-10-|
    E||-----------------------------------------------------------------------|
    
    e||-----------------------------------------------------------------------|
    B||-----------------------------------------------------------------------|
    G||-14-14-14-14-14-14-14-14--16-16-16-16-16-16-16-16----------------------|
    D||-14-14-14-14-14-14-14-14--16-16-16-16-16-16-16-16----------------------|
    A||-12-12-12-12-12-12-12-12--14-14-14-14-14-14-14-14----------------------|
    E||-----------------------------------------------------------------------|
     

    Тональность:

    Нет текста!



    Назад
    Рекомендуем посмотреть другие песни исполнителя «Jj72»:

    • Комментарии Facebook ()
    • Комментарии ВКонтакте



    Добавить в Избранное Браузера
    Сохранить здесь Очистить


    x

    0


    +
    -

    +
    -

    -

    Авторизация





    Зарегистрироваться

    M

    Дата и время

    • 15:57:01
       

    Социальные ссылки


    Наши приложения

    • Muzbank App Play Market
    • Muzbank Amazon App