MUZBANK



A Most Complete Bank Of Music Information

МУЗЫКАЛЬНО-ИНФОРМАЦИОННЫЙ БАНК

Поиск по сайту







    JJj72 • Snow (аккорды и текст - chords & lyrics)


    270

    Print

    Видео «Snow (Jj72)»

    Видео клипы к песне подбираются автоматически сайтом youtube. Возможны некоторые несоответствия клипов песне.

    ↑ Спрятать рекламу ↑



    Download


     
    
    
    Artist-JJ72
    Song-Snow
    Album-JJ72
    Intro and Verse:
    G-----------------
    D-----------------  Repeat throughout verse
    A-3----10/8---10/3  
    E-----------------
    
    Chorus:
    G-----------------
    D-----------------
    A-8-8-7-8--5-5-5-5
    E-----------------
    Repeat until:
    G-----------------------------
    D----------------------3-5-3--
    A-8-8-8--7-8--5-5--3-5-------5
    E-----------------------------
    then:
    G-----------
    D-----------
    A-8-8-7-8--5
    E-----------
    
    Solo:
    G---------------------------
    D---------------------------
    A-3--3--3-5-7/--------------
    E---------------1--1--1-2-3/
    repeat until:
    G----------------------------
    D----------------------------
    A-3--3--3-5-78-8-8-8-8-8-8-8
    E----------------------------
    then back to chorus
    
    Outro:
    same as verse
     

    Тональность:

    Нет текста!



    Назад
    Рекомендуем посмотреть другие песни исполнителя «Jj72»:

    • Комментарии Facebook ()
    • Комментарии ВКонтакте



    Добавить в Избранное Браузера
    Сохранить здесь Очистить


    x

    0


    +
    -

    +
    -

    -

    Авторизация





    Зарегистрироваться

    M

    Дата и время

    • 01:25:22
       

    Социальные ссылки


    Наши приложения

    • Muzbank App Play Market
    • Muzbank Amazon App