MUZBANK



A Most Complete Bank Of Music Information

МУЗЫКАЛЬНО-ИНФОРМАЦИОННЫЙ БАНК

Поиск по сайту







    JJohnson Jack • Middle Man (аккорды и текст - chords & lyrics)


    238

    Print

    Видео «Middle Man (Johnson Jack)»

    Видео клипы к песне подбираются автоматически сайтом youtube. Возможны некоторые несоответствия клипов песне.

    ↑ Спрятать рекламу ↑



    Download


     
    
    
    Song: Middleman
    Artist: Jack Johnson
    Album: Brushfire Fairytales
    Tabbed By: ADRA (d_abernathy20@hotmail.com)
    
    
    *= let ring
    ^= lift
    = slide down
    
    
    Verse:
    G|--------------------------|
    D|--------9---7*-77---------|
    A|--7*-77---7-------5^-6^---|
    E|--------------------------|
    
    Pre Chorus:
    G|-------------------------------------------------|
    D|---------9---7*-77-------9*-99---9---------------|
    A|--7*-77---7--------5^-6^-------9---9*-9-8^8*-8---|
    E|-------------------------------------------------|
    
    Chorus:
    G|--------------------------|
    D|--------------7*-7--------|
    A|--7*-7-555*-5------555*-5-|
    E|--------------------------|
    
    Pro Chorus:
    G|------------------------------------------------------|
    D|--------------7*-7--------9*-99-9-9-------------------|
    A|--7*-7-555*-5------555*-5-----------9^9*-9-8^8*-8-777-|
    E|------------------------------------------------------|
    
    Verse Variation#1:
    G|---------------------------------------|
    D|--------9---7*-77-------------9---7^7^-|
    A|--7*-77---7-------5^-6^-7*-77---7------|
    E|---------------------------------------|
    
    Outro:
    G|----------------------|
    D|--6^6^-5^5^-5---------|
    A|--------------5-6-71-|
    E|----------------------|
    
    
    Order:
    
    Verse: x8
    Pre Chorus: x1
    Chorus: x3
    Pro Chorus: x1
    Verse: x5
    Pre Chorus: x1
    Chorus: x5
    Pro Chorus: x1
    Verse: x2
    Verse Variation#1: x4
    Outro: x1
    
    This is my first tab ever, but I am almost 100% sure that it is correct. 
    Just listen to the song and you will pick up the rhythm(CD version). If 
    you have any questions or comments, please e-mail me. I am interested 
    in knowing what you think.
     

    Тональность:

    Нет текста!



    Назад
    Рекомендуем посмотреть другие песни исполнителя «Johnson Jack»:

    • Комментарии Facebook ()
    • Комментарии ВКонтакте



    Добавить в Избранное Браузера
    Сохранить здесь Очистить


    x

    0


    +
    -

    +
    -

    -

    Авторизация





    Зарегистрироваться

    M

    Дата и время

    • 07:45:32
       

    Социальные ссылки


    Наши приложения

    • Muzbank App Play Market
    • Muzbank Amazon App