MUZBANK



A MOST COMPLETE BANK OF MUSIC INFORMATION

МУЗЫКАЛЬНО-ИНФОРМАЦИОННЫЙ БАНК







    JJua Music • Marshmallow Suicide (аккорды и текст - chords & lyrics)


    307

    Print

    Видео «Marshmallow Suicide (Jua Music)»

    Видео клипы к песне подбираются автоматически сайтом youtube. Возможны некоторые несоответствия клипов песне.

    ↑ Спрятать рекламу ↑





     
    
    
    Marshmallow Suicide
    
    Intro
    |------------------|----------|-----------|--------------|
    |------------------|-1st&3rd--|-2nd-------|-4th----------|
    |------------------|----------|-----------|--------------|
    |------------------|-14----15-|-----------|-13-12-13-12--|
    |-13-12-12-13-12-12|----12----|-11-0-10-0-|--------------|
    |------------------|----------|-----------|--------------|
    end of riff
    |------------------------------|
    |------------------------------|
    |---G1-----------G2------------|
    |--13-13-13-12---13-13-13-12---|
    |----------------13-13-13-12---|
    |----------------11-11-11-10---|
    2nd riff
    |----------------|-------------------|-------------------|
    |----------------|-------------------|-------------------|
    |----------------|-------------------|-------------------|
    |---10---11---8--|----10----12----13-|----12----15----14-|
    |-9----9----9----|-11----11----11----|-13----13----13----|
    |----------------|-------------------|-------------------|
    
    |--------------------|------------------|
    |--------------------|------------------|
    |--------------------|------------------|
    |----14----17----15--|---10---11---8----|
    |-15----15----15-----|-9----9----9-9----|
    |--------------------|------------------|
    3rd riff
    |------------------------------------------------|
    |------------------------------------------------|
    |-----------------------------------------11-----|
    |-----9-------8-------9------11---------9--------|
    |---7---7---7---7---7---7--7----7-----7----------|
    |-0-------0-------0-------0---------0------------|
    
    Verse                     prechor (same rhythm as verse)   
    |------------------------|--------------|
    |------------------------|--------------|
    |-9----8----9----11------|-9----11------|
    |-9-x8-9-x8-9-x8--9-x8---|-9-x8--9-x8---|
    |-7----7----7-----7------|-7-----7------|
    |------------------------|--------------|
    
    Chorus
    |-----------------------|
    |-----------------------|
    |-4- 

    Тональность:

    Это должно быть в ТОП-листе! - Топ-лист композиций



    Назад
    Рекомендуем посмотреть другие песни исполнителя «Jua Music»:

    • Комменты Fb ()
    • Комменты ВК



    Добавить в Избранное Браузера
    Сохранить здесь Очистить


    x

    0


    +
    -

    +
    -

    -

    Авторизация





    Зарегистрироваться

    M

    Дата и время

    • 23:48:23
       

    Социальные ссылки


    Наши приложения

    • Muzbank App Play Market
    • Muzbank Amazon App