MUZBANK



A Most Complete Bank Of Music Information

МУЗЫКАЛЬНО-ИНФОРМАЦИОННЫЙ БАНК

Поиск по сайту







    JJudas Priest • Screaming For Vengeance (аккорды и текст - chords & lyrics)


    248

    Print

    Видео «Screaming For Vengeance (Judas Priest)»

    Видео клипы к песне подбираются автоматически сайтом youtube. Возможны некоторые несоответствия клипов песне.

    ↑ Спрятать рекламу ↑



    Download


     
    *From the Album SCREAMING FOR VENGEANCE
    
    
    ..  - palm mute          /  - slide up to
       - slide down to      ~  - vibrato
     h  - hammer on          b  - bend
     p  - pull off            Suffixes for bend
                              ph - pinch harmonic
                               f - full bend    h - half bend
    *  - see comment           r - release      t - tap bend
    X  - percussion mute       ~ - vibrato bend
    @  - slight palm mute     () - ghost note, sustained note
    
    Tune Gtr to E
    
    
    Riff A
    |--------------------------------------------------------|
    |--------------------------------------------------------|
    |----------------7---------4-4---------6-6---------------| 
    |--4----(4)------7--7-7----4-4--2-2----6-6--2-4----2-----| 
    |--4----(4)------5--7-7----2-2--2-2----4-4--2-4----2-----|
    |--2----(2)---------5-5---------0-0---------0-2--0-0-----|
    
    Riff B                                                                    
    |--------------------------------------------------------------------|
    |--------------------------------------------------------------------|
    |--------------------------------------------------------------------|
    |--------------------------------------------------------------------| 
    |--------------------------------------------------------------5-6-7-|
    |--0-0-0-2-3-0-0-3-5-0-0-5-7-0-0-2-3-0-2-3-2-0-0-3-5-0-3-5-6-7-------|
    |                                                                    |
    |--------------------------------------------------------------------|
    |----------5-8-10/12-------------------------------------------------|
    |------4-7-----------------------------------------------------------|
    |--5-7---------------------------------------------------------------| 
    |--------------------------------------------------------------------|
    |--------------------------------------------------------------------|
                                      
    Riff C
    |-------------------------------|
    |-------------------------------|
    |----2--2--5-2p0-5--------2-----|
    |----2--2--5-2p0-5--------2-----| 
    |--0-0--------------0-0-0-0-----|
    |-------------------------------|
    
    Riff D.1
    |------------------------------------------|
    |------------------------------------------|
    |------------------------------------------|
    |----9--7--9--7--12------9--7--9--7--------|
    |----7--5--7--5--10------7--5--7--5--5-----|
    |--0-------------------0-------------3-----|
    
    Riff D.2
    |----------------------|
    |----------------------|
    |----------------------|
    |----9--7--9--7--5-----|
    |----7--5--7--5--3-----|
    |--0-------------------|
    
    Riff E.1
    |---------------------------------------|
    |---------------------------------------|
    |--4--2----------5---------7------------|
    |--4--2----------5----5----7----7-------|
    |--2--0----------3----5----5----7-------|
    |---------------------3---------5-------|
    
    Riff E.2
    |-----------------------------------------------------|
    |-----------------------------------------------------|
    |--5-------------2----------5---------7---------------|
    |----7p5--1p0----2----------5----5----7----2----------|
    |--------------3-0----------3----5----5----2-2-2-2-2--|
    |--------------------------------3---------0-0-0-0-0--|
    
    Riff F
    |--------------------|
    |--------------------|
    |--------------------|
    |--8--7--5*----------|
    |--------------------|
    |--------------------|
    * use the whammy bar for this note
    
    Riff G
    |-----------------|
    |-----------------|
    |----------4------|
    |--2-------4------|
    |--2-------2------|
    |--0--------------|
    
    Riff H
    |---------------------------------------|
    |---------------------------------------|
    |---------------------------------------|
    |--2-4--4--4-7-4---4--4-2--4----4-------|
    |--0-2--2--2-5-2---2--2-0--2----2-------|
    |---------------------------------------|
    
    Riff I
    |----------------|
    |----------------|
    |----------------|
    |----------------|
    |--2--4-2/10-----|
    |----------------|
    
    Riff J
    |----------------------|-------------------------|
    |----------------------|-------------------------|
    |----------------------|-------------------------|
    |----------------------|--9---9---9---9--7-7-----|
    |--7---7---7---7--5-5--|--7-7-7-7-7-7-7--5-5-----|
    |--5-5-5-5-5-5-5--3-3--|-------------------------|
    
    Riff K.1
    |------------------------------------------------------------|
    |------------------------------------------------------------|
    |------------------------------------------------------------|
    |------------------------------------------------------------|
    |------------------------------555555555555------------------|
    |--2222222222222222666666666666------------222222222222------|
    
    Riff K.2
    |-----------------------------------------------------|
    |-----------------------------------------------------|
    |------------------------------------------7----------|
    |---------------------------------------6--7----------|
    |--------------------------------7---9--4--5----------|
    |--2222222222222222666666666666--5---7----------------|
    
    Riff L
    |-------------------------------------------------|
    |-------------------------------------------------|
    |-------7-------2---------------------------------|
    |-------7-------2-----------------------4-4-4-----|
    |--5555-5--0000-0------0-2-0---0-2-0-2--2-2-2-----|
    |------------------3-4-------4--------------------|
    
    Riff M
    |-------------------------------------------------|
    |-------------------------------------------------|
    |-------------------------------------------------|
    |-------------------------------------------------|
    |--4-4-4-4---4-4-4-4---4-4-4-4---4-4-4-4----------|
    |--2-2-2-2-0-2-2-2-2-0-2-2-2-2-0-2-2-2-2----------|
    
    Riff N
    |----------------------------------------|
    |----------------------------------------|
    |------------------------------0h5-------|
    |--------------------------0h2-----------|
    |----------------------0h3---------------|
    |--2-0-0-2-0-0-2-0-2p0-------------------|
     

    Тональность:

    Нет текста!



    Назад
    Рекомендуем посмотреть другие песни исполнителя «Judas Priest»:

    • Комментарии Facebook ()
    • Комментарии ВКонтакте



    Добавить в Избранное Браузера
    Сохранить здесь Очистить


    x

    0


    +
    -

    +
    -

    -

    Авторизация





    Зарегистрироваться

    M

    Дата и время

    • 10:57:22
       

    Социальные ссылки


    Наши приложения

    • Muzbank App Play Market
    • Muzbank Amazon App