MUZBANK



A Most Complete Bank Of Music Information

МУЗЫКАЛЬНО-ИНФОРМАЦИОННЫЙ БАНК

Поиск по сайту







    JJudas Priest • Youve Got Another Thing Coming (аккорды и текст - chords & lyrics)


    235

    Print

    Видео «Youve Got Another Thing Coming (Judas Priest)»

    Видео клипы к песне подбираются автоматически сайтом youtube. Возможны некоторые несоответствия клипов песне.

    ↑ Спрятать рекламу ↑



    Download


     
    
    
    You got another thing coming by Judas Priest
    
    Intro
    
    Guitar 1 -Palm Muted-
    E---------------------------------
    B---------------------------------
    G---------------------------------
    D--4-4-4-4-4-4-4-4-4-4-4-4-4-4-4-4
    A--4-4-4-4-4-4-4-4-4-4-4-4-4-4-4-4
    E--2-2-2-2-2-2-2-2-2-2-2-2-2-2-2-2
    
    Then
    E-----------------------------------------
    B--5r-------------------------------------
    G--4r--4r---------------------2-------2--4
    D--2r--4r--4r--4-4-4-4-4-4-4--2--4-4--2--4
    A------2r--4r--4-4-4-4-4-4-4--0--4-4--0--2
    E----------2r--2-2-2-2-2-2-2-----2-2------
    
    Guitar 3 Palm Muted
    E---------------------------------
    B---------------------------------
    G---------------------------------
    D--4-4-4-4-4-4-4-4-4-4-4-4-4-4-4-4
    A--4-4-4-4-4-4-4-4-4-4-4-4-4-4-4-4
    E--2-2-2-2-2-2-2-2-2-2-2-2-2-2-2-2
    
    Then
    E--------------------
    B--------------------
    G--2-------2--4------
    D--2--4-4--2--4------
    A--0--4-4--0--2------
    E-----2-2------------
    
    Verse 1
    
    Guitar 1
    E---------------------------------------------------------------
    B---------------------------------------------------------------
    G---------------------------------------------------------------
    D--4-4-4-4-4-4-4-4-4-4-4-4-4-4-4-4--4--2--4-4--2--4----4-4--4--4
    A--4-4-4-4-4-4-4-4-4-4-4-4-4-4-4-4--4--0--4-4--0--2-4--4-4--4--4
    E--2-2-2-2-2-2-2-2-2-2-2-2-2-2-2-2--2-----2-2-------2--2-2--0--2
                  -Palm Muted-
    
    Guitar 3 -Palm Muted-
    E---------------------------------
    B---------------------------------
    G---------------------------------
    D--4-4-4-4-4-4-4-4-4-4-4-4-4-4-4-4
    A--4-4-4-4-4-4-4-4-4-4-4-4-4-4-4-4
    E--2-2-2-2-2-2-2-2-2-2-2-2-2-2-2-2
    
    
    
    Pre Chorus
    
    Guitar 1 and Guitar 3
    E------2r-------------2--------------------
    B------3r-------------3--------------------
    G------2r--4r---------2--4--6-6-6-6-6-6-6-6
    D--4r--0r--4r--4r--4--0--4--6-6-6-6-6-6-6-6
    A--4r------2r--4r--4-----2--4-4-4-4-4-4-4-4
    E--2r----------2r--2-----------------------
    
    Chorus
    
    Guitar 1
    E----------------------------------
    B----------------------------------
    G----------------------------------
    D--2--4-4--2--4-4-4-4--2--4-4--2--4
    A--0--4-4--0--4-4-4-4--0--4-4--0--2
    E-----2-2-----2-2-2-2-----2-2------
    
    Guitar 3 Palm Muted
    E---------------------------------
    B---------------------------------
    G---------------------------------
    D--4-4-4-4-4-4-4-4-4-4-4-4-4-4-4-4
    A--4-4-4-4-4-4-4-4-4-4-4-4-4-4-4-4
    E--2-2-2-2-2-2-2-2-2-2-2-2-2-2-2-2
    
    Verse 2
    
    Guitar 1
    E---------------------------------------------------------------
    B---------------------------------------------------------------
    G---------------------------------------------------------------
    D--4-4-4-4-4-4-4-4-4-4-4-4-4-4-4-4--4--2--4-4--2--4----4-4--4--4
    A--4-4-4-4-4-4-4-4-4-4-4-4-4-4-4-4--4--0--4-4--0--2-4--4-4--4--4
    E--2-2-2-2-2-2-2-2-2-2-2-2-2-2-2-2--2-----2-2-------2--2-2--0--2
                  -Palm Muted-
    
    Guitar 3  

    Тональность:

    Нет текста!



    Назад
    Рекомендуем посмотреть другие песни исполнителя «Judas Priest»:

    • Комментарии Facebook ()
    • Комментарии ВКонтакте



    Добавить в Избранное Браузера
    Сохранить здесь Очистить


    x

    0


    +
    -

    +
    -

    -

    Авторизация





    Зарегистрироваться

    M

    Дата и время

    • 17:19:34
       

    Социальные ссылки


    Наши приложения

    • Muzbank App Play Market
    • Muzbank Amazon App