MUZBANK



A Most Complete Bank Of Music Information

МУЗЫКАЛЬНО-ИНФОРМАЦИОННЫЙ БАНК








    JJupiter Sunrise • Arthur Nix (аккорды и текст - chords & lyrics)


    182

    Print

    Видео «Arthur Nix (Jupiter Sunrise)»

    Видео клипы к песне подбираются автоматически сайтом youtube. Возможны некоторые несоответствия клипов песне.

    ↑ Спрятать рекламу ↑






     
    
    
    Band: Jupiter Sunrise
    Song: Arthur Nix
    Tabbed By: Jana
    
    e|--------------------------------
    B|---9----------------------------
    G|--9-9-11-9-119-8-9-6-4-4-------
    D|-9---------119------7-6-52-----
    A|--------------------------2-----
    E|--------------------------0-----
    
    e|-----------------------------------
    B|-----------------------------------
    G|-----------------------------------
    D|-2222-66-77-44-2222-66-77-99-------
    A|-2222-66-77-44-2222-66-77-99-------
    E|-0000-44-55-22-0000-44-55-77-------
     

    Тональность:

    Нашли ошибку?



    Назад
    Рекомендуем посмотреть другие песни исполнителя «Jupiter Sunrise»:

    • Комменты Fb ()
    • Комменты ВК



    Добавить в Избранное Браузера
    Сохранить здесь Очистить


    x

    0


    +
    -

    +
    -

    -

    Авторизация





    Зарегистрироваться

    M

    Дата и время

    • 16:28:06
       

    Социальные ссылки


    Наши приложения

    • Muzbank App Play Market
    • Muzbank Amazon App