MUZBANK



A Most Complete Bank Of Music Information

МУЗЫКАЛЬНО-ИНФОРМАЦИОННЫЙ БАНК

Поиск по сайту







    ККалинов мост • Уходили из дома (аккорды и текст - chords & lyrics)


    1029

    Print

    Видео «Уходили из дома (Калинов мост)»

    Видео клипы к песне подбираются автоматически сайтом youtube. Возможны некоторые несоответствия клипов песне.

    ↑ Спрятать рекламу ↑



    Download



    Вступление:
                    Am           H7    Em    C    
    e|-------------|-----------|------|-------------|
    H|-------------|-----------|------|--5p3-5-5-3--|
    G|---------2/4-|-5-5p4h5-7-|-4----|--4---5-5-5--|
    D|-------------|-----------|------|-------------|
    A|-------------|-----------|------|-------------|
    E|-------------|-----------|------|-------------|
    
       G             C          H7 
    e|-3-3-3-------|-----------|------|
    H|-5-3-3-------|-----------|------|
    G|---4-4---2/4-|-5-5p4h5-7-|-4----|
    D|-------------|-----------|------|
    A|-------------|-----------|------|
    E|-------------|-----------|------|
    
           Em                                A         
    Волос пахнет костром, ветви стали шатром.
           Em                               A
    Волос пахнет костром, небо греет шатром.
         Am                H7            Em  G             
    Это было тогда, когда мы уходили из дома.
          C                  H7            Em
    Времена, когда мы навсегда уходили из дома.
    
    Теплота твоих рук в ожиданье разлук.
    Теплота твоих рук обещаньем разлук.
    Это было весной, когда мы уходили из дома,
    Времена, когда мы навсегда уходили из дома.
    
    Не ищи меня, мать, - ушел день обнимать.
    Ты прости меня, мать, пропал ночь обнимать.
    Чья беда, что мы все навсегда уходили из дома.
    Времена, когда мы навсегда уходили из дома.
    
    Соло:
                     Em                                       Am                                         
    e|-------------|--------------------|-------------------|-------|
    H|-----------8-|-12p10-8-10/12----8-|-12p10-8-10/12-12p-|-10b---|
    G|---------9---|----------------9---|-------------------|-------|
    D|-------------|--------------------|-------------------|-------|
    A|-------------|--------------------|-------------------|-------|
    E|-------------|--------------------|-------------------|-------|
    
                     Em                                       Am 
    e|-------------|----------------------|----10h12--------|-------|
    H|-----------8-|-12p10-8-10/12--12p10-|-12-------12-12p-|-10b---|
    G|-------9-9---|----------------------|-----------------|-------|
    D|-------------|----------------------|-----------------|-------|
    A|-------------|----------------------|-----------------|-------|
    E|-------------|----------------------|-----------------|-------|
    
                                            H7
    e|-------------|----------------------|-------------------|
    H|-------------|-----10p8h10-10p8-10/-|-12--12-12p10-8h10-|
    G|-------------|----------------------|-------------------|
    D|-------------|----------------------|-------------------|
    A|-------------|----------------------|-------------------|
    E|-------------|----------------------|-------------------|
    
       Em        C         G                 Am                 H7
    e|-------------------|----------------|-----0-0-----------|--12-12-12-12~~~|
    H|-------------------|----------------|-----8-8-8---------|----------------|
    G|-9-----------------|----------------|---------9-9-9-7/9-|-----12----12~~~|
    D|---------------7-9/|-14-149-9---9-|-7-----------------|----------------|
    A|----/10-10-10------|----------------|-------------------|----------------|
    E|-------------------|----------------|-------------------|----------------|
    
             Em
      Голос пахнет костром, небо тлеет шатром.
      Теплота твоих рук - обещаньем разлук.
      Голос пахнет костром...
    
    

    Тональность:

    Нет текста!



    Назад
    Рекомендуем посмотреть другие песни исполнителя «Калинов мост»:

    • Комментарии Facebook ()
    • Комментарии ВКонтакте



    Добавить в Избранное Браузера
    Сохранить здесь Очистить


    x

    0


    +
    -

    +
    -

    -

    Авторизация





    Зарегистрироваться

    M

    Дата и время

    • 15:18:11
       

    Социальные ссылки


    Наши приложения

    • Muzbank App Play Market
    • Muzbank Amazon App