MUZBANK



A Most Complete Bank Of Music Information

МУЗЫКАЛЬНО-ИНФОРМАЦИОННЫЙ БАНК








    KKid Rock • Cowboy (аккорды и текст - chords & lyrics)


    308

    Print

    Видео «Cowboy (Kid Rock)»

    Видео клипы к песне подбираются автоматически сайтом youtube. Возможны некоторые несоответствия клипов песне.

    ↑ Спрятать рекламу ↑



    Download



     
    
    
    Standard tuning
    H=hammer on
    P=pull off
    B= Bend
    
    intro: Semi-distorted tone
    ---------------------------------
    ---------------------------------
    ---------------------------------
    -4/6-6--4-6-xx-xx-4/6-6--4-6-xx-xx
    -4/6-6--4-6-xx-xx-4/6-6--4-6-xx-xx
    -2/4-4--2-4-xx-xx-2/4-4--2-4-xx-xx
    
    Verse: Clean tone
    --------------------------------------------------
    --------------------------------------------------
    -------1---------1--------------1---3B--1------1--
    ---1h3----3p1--------------1h3------------1h3-----
    --------------2-----------------------------------
    -4----------------------4-------------------------
    
    Refrain: Heavy distortion
    ---------------------------------
    ---------------------------------
    ---------------------------------
    -4/6-6--4-6-xx-xx-4/6-6--4-6-xx-xx
    -4/6-6--4-6-xx-xx-4/6-6--4-6-xx-xx
    -2/4-4--2-4-xx-xx-2/4-4--2-4-xx-xx
    
    
    
     

    Тональность:

    Нашли ошибку?



    Назад
    Рекомендуем посмотреть другие песни исполнителя «Kid Rock»:

    • Комменты Fb ()
    • Комменты ВК



    Добавить в Избранное Браузера
    Сохранить здесь Очистить


    x

    0


    +
    -

    +
    -

    -

    Авторизация





    Зарегистрироваться

    M

    Дата и время

    • 04:12:14
       

    Социальные ссылки


    Наши приложения

    • Muzbank App Play Market
    • Muzbank Amazon App