MUZBANK



A Most Complete Bank Of Music Information

МУЗЫКАЛЬНО-ИНФОРМАЦИОННЫЙ БАНК

Поиск по сайту







    KKid Rock • Devil Without A Cause (аккорды и текст - chords & lyrics)


    209

    Print

    Видео «Devil Without A Cause (Kid Rock)»

    Видео клипы к песне подбираются автоматически сайтом youtube. Возможны некоторые несоответствия клипов песне.

    ↑ Спрятать рекламу ↑



    Download



     
    
    
    Artist: Kid Rock
    Title: Devil Without A Cause
    Album: Devil Without A Cause
    tabed by: AJ 
    
                            E|----------------------------------------| 
                            B|----------------------------------------| 
                            G|-----x---x---x---x---------2------------| 
                            D|-2h4-x-x-x-x-x-x-x-4-4p2h4---4----------| 
                            A|----------------------------------------| 
                            E|----------------------------------------| 
    
                       ....with different endings, based in these two: 
    
                            E|----------------------------------------| 
                            B|-10h12b-10h12b--or--10h12b-10h12b-10----| 
                            G|-------------------------------------11-| 
                            D|----------------------------------------| 
                            A|----------------------------------------| 
                            E|----------------------------------------| 
    
                            E|----------------------------------------| 
                            B|----------------------------------------| 
                            G|-2h4b-2---------------------------------| 
                            D|--------4-------------------------------| 
                            A|----------------------------------------| 
                            E|----------------------------------------| 
    
                                    Riff 2 [01:54] 
                                   -> Distortion ON 
                                    -> Wah OFF 
    
                                      F#5 A5 
                            E|----------------------------------------| 
                            B|----------------------------------------| 
                            G|---------------------2------------------| 
                            D|-4-4-x-x-x-x-x-4-x-4-2------------------| 
                            A|-4-4-x-x-x-x-x-4-x-4-0------------------| 
                            E|-2-2-x-x-x-x-x-2-x-2--------------------| 
    
                                    Riff 3 [02:05] 
                                   -> Distortion ON 
                                    -> Wah OFF 
    
                                      F#5 A5 
                            E|----------------------------------------| 
                            B|----------------------------------------| 
                            G|-----------------------2----------------| 
                            D|-4-4-x-x-4-x-x-4-x-x-4-2----------------| 
                            A|-4-4-x-x-4-x-x-4-x-x-4-0----------------| 
                            E|-2-2-x-x-2-x-x-2-x-x-2------------------| 
                              |________p.m._________| 
    
                                    Riff 4 [03:28] 
                                   -> Distortion ON 
                                    -> Wah OFF 
    
                                      E5 F#5 
                            E|----------------------------------------| 
                            B|----------------------------------------| 
                            G|----------------------------------------| 
                            D|-2-4--4-2-4-----------------------------| 
                            A|-2-4--4-2-4-----------------------------| 
                            E|-0-2--2-0-2-----------------------------| 
    
                                     p= Pull off 
                                   h= Hammer on 
                                      b= Bend 
                                 x= Hit muted strings 
                                  p.m.= Palm mute
     

    Тональность:

    Нет текста!



    Назад
    Рекомендуем посмотреть другие песни исполнителя «Kid Rock»:

    • Комментарии Facebook ()
    • Комментарии ВКонтакте



    Добавить в Избранное Браузера
    Сохранить здесь Очистить


    x

    0


    +
    -

    +
    -

    -

    Авторизация





    Зарегистрироваться

    M

    Дата и время

    • 12:42:35
       

    Социальные ссылки


    Наши приложения

    • Muzbank App Play Market
    • Muzbank Amazon App