MUZBANK



A Most Complete Bank Of Music Information

МУЗЫКАЛЬНО-ИНФОРМАЦИОННЫЙ БАНК

Поиск по сайту







    KKillswitch Engage • Numbered Days (аккорды и текст - chords & lyrics)


    127

    Print

    Видео «Numbered Days (Killswitch Engage)»

    Видео клипы к песне подбираются автоматически сайтом youtube. Возможны некоторые несоответствия клипов песне.

    ↑ Спрятать рекламу ↑



    Download



     
    
    
    Song: Numbered Days
    Artist: Killswitch Engage
    Album: Alive or Just Breathing
    Tabbed by: Frank (datswhat@optonline.net)
    
    p - Pull off
    pm- Palm mute
     - Slide down
    / - Slide up
    ()- Pinch harmonic and vibrato
    h - Hammer on
    
    Tuning: C G C F A D
    
    This is the only correct version of numbered days on the internet, so enjoy. ;]
    
    
    Intro Guitar 1             Guitar 2
    |-------------------|    |------------------|
    |-------------------|    |------------------|
    |-------------------| x1 |------------------|
    |-0-0--4-3-1-3-1p0--|    |-0-0--1-3-1-3-1p0-|
    |-0-0--2-1-1-1-1p0--|    |-0-0--1-1-1-1-1p0-|
    |-0-0------1---1p0--|    |-0-0--1---1---1p0-|
    PM- -                      - -
    
    
    |--------------------------------------------|
    |---------------------------3--9--13--3------|
    |---------------------------2--8--12--2------| x1
    |-0-0-0-0--0-0-0-0-/10-0-0-0--6--10--0--10-|
    |-0-0-0-0--0-0-0-0-/10-0-0-0--6--10--0--10-|
    |-0-0-0-0--0-0-0-0-/10-0-0-0--6--10--0--10-|
    PM- - - -  - - - -      - -    
    
    
    Guitar 1
    |-------------------------------------------------|
    |-------------------------------------------------|
    |-------------------------------------------------| x4
    |-4-3-1-3-1p0--00-00-00-1p0-00-00-00-1p0-00-00-00-| 
    |-2-1-1-1-1p0--00-00-00-1p0-00-00-00-1p0-00-00-00-|
    |-----1---1p0--00-00-00-1p0-00-00-00-1p0-00-00-00-|
    PM             -- -- --     -- -- --     -- -- --
    
    
    Guitar 2
    |-------------------------------------------------| 
    |-------------------------------------------------| 
    |-------------------------------------------------| x4
    |-1-3-1-3-1p0--00-00-00-1p0-00-00-00-1p0-00-00-00-|
    |-1-1-1-1-1p0--00-00-00-1p0-00-00-00-1p0-00-00-00-|
    |-1---1---1p0--00-00-00-1p0-00-00-00-1p0-00-00-00-|
    PM             -- -- --     -- -- --     -- -- --
    
    
    |--------| 
    |--------| 
    |--------| 
    |--------| 
    |--(11)--| 
    |--------| 
    
    
    
    |---------------------------------------------------------------|
    |---------------------------------------------------------------|
    |-----------------------------------------------------------(7)-| x4
    |---------------------------------------------------------------|
    |-----5-----5-----1-----1-----------1-----3-----5-----7-6-------|
    |-0-0---0-0---0-0---0-0---0-0-3-0-0---0-0---0-0---0-0-----0-----|
    PM- -   - -   - -   - -   - -   - -   - -   - -   - -     -
    
    
    
    Guitar 1
    |------------------|     
    |------------------|     
    |------------------| x2  
    |-0----3----5----8-|     
    |-0----3----5----8-|     
    |-0----3----5----8-|     
    
    
    Guitar 2
    |-----------------------------------------------------------------------------------------------------|
    |-----------------------------------------------------------------------------------------------------|
    |-----------------------------------------------------------------------------------------------------|x4
    |555555-333333-555555-777777-555555-333333-111111---555555-333333-555555--999999--777777-555555-333333|
    |-----------------------------------------------------------------------------------------------------|
    |-----------------------------------------------------------------------------------------------------|
    
    this is most of the song, if anyone can help me out to tab the rest of the
    song out, it would be much appreciated. i plan on tabbing out lots more kse
    songs, if you have any corrections or comments about the tab please feel free to
    email me at datswhat@optonline.net
     

    Тональность:

    Нет текста!



    Назад
    Рекомендуем посмотреть другие песни исполнителя «Killswitch Engage»:

    • Комментарии Facebook ()
    • Комментарии ВКонтакте



    Добавить в Избранное Браузера
    Сохранить здесь Очистить


    x

    0


    +
    -

    +
    -

    -

    Авторизация





    Зарегистрироваться

    M

    Дата и время

    • 15:36:39
       

    Социальные ссылки


    Наши приложения

    • Muzbank App Play Market
    • Muzbank Amazon App