MUZBANK



A Most Complete Bank Of Music Information

МУЗЫКАЛЬНО-ИНФОРМАЦИОННЫЙ БАНК

Поиск по сайту







    KKillswitch Engage • Rise Inside (аккорды и текст - chords & lyrics)


    213

    Print

    Видео «Rise Inside (Killswitch Engage)»

    Видео клипы к песне подбираются автоматически сайтом youtube. Возможны некоторые несоответствия клипов песне.

    ↑ Спрятать рекламу ↑



    Download


     
    
    
    Song: Rise Inside
    Artist: Killswitch Engage
    Album: Alive or Just Breathing
    Tabbed by: Christian / silent_warrior_@hotmail.com
    
    ///X - Scratch string with pick
    PM - Palm mute
    * - Harmonic
    / - Slide up
     - Slide down
    x - Mute string
    
    
    Tuning: C G C F A D
    
    
    Intro
    |------|     |-----|     |----------|
    |------|     |-----|     |----------|
    |------| x1  |-----| x4  |-9*9*9*9*-| x1
    |------|     |--0--|     |-9*9*9*9*-|
    |------|     |--0--|     |----------|
    |-///X-|     |--0--|     |----------|
    
    
    |--------------------------------------------------------------------------|
    |--------------------------------------------------------------------------|
    |--------------------------------------------------------------------------| x4
    |-1-0--0-0-0-0-0--3-3--0-0--8-83--31--1-0--0-0-0-0-0--3-3--0-0-0-2-3-1-0-|
    |-1-0--0-0-0-0-0--3-3--0-0--8-83--31--1-0--0-0-0-0-0--3-3--0-0-0-2-3-1-0-|
    |-1-0--0-0-0-0-0--3-3--0-0--8-83--31--1-0--0-0-0-0-0--3-3--0-0-0-2-3-1-0-|
    PM     - - - - -       - -                   - - - - -       - - - - - - -
    
    
    Verse
    |----------------------------------------------------------|
    |----------------------------------------------------------|
    |----------------------------------------------------------| x1
    |-0-0-0-0-0-0-1-3-3-3-3-3-8-8-8-8-8-7-7-7-7-7-7-7--2-3-1-0-|
    |-0-0-0-0-0-0-1-3-3-3-3-3-8-8-8-8-8-7-7-7-7-7-7-7--2-3-1-0-|
    |-0-0-0-0-0-0-1-3-3-3-3-3-8-8-8-8-8-7-7-7-7-7-7-7--2-3-1-0-|
    PM  - - - - - - - - - - - - - - - - - - - - - - -  - - - -
    
    
    |----------------------------------------------------------|
    |----------------------------------------------------------| 
    |----------------------------------------------------------| x1
    |-0-0-0-0-0-0-1-3-3-3-3-3-8-8-8-8-8-0-0-0-0-0-0-0--2-3-1-0-|
    |-0-0-0-0-0-0-1-3-3-3-3-3-8-8-8-8-8-0-0-0-0-0-0-0--2-3-1-0-|
    |-0-0-0-0-0-0-1-3-3-3-3-3-8-8-8-8-8-0-0-0-0-0-0-0--2-3-1-0-|
    PM  - - - - - - - - - - - - - - - - - - - - - - -  - - - -
    
    
    |-------------------------------------------------|
    |-------------------------------------------------|
    |-------------------------------------------------| x1
    |-0-0-0-0-0-0-1-3-3-3-3-3-8-8-8-8-8-7-7-7-7-7-7-7-|
    |-0-0-0-0-0-0-1-3-3-3-3-3-8-8-8-8-8-7-7-7-7-7-7-7-|
    |-0-0-0-0-0-0-1-3-3-3-3-3-8-8-8-8-8-7-7-7-7-7-7-7-|
    PM  - - - - - - - - - - - - - - - - - - - - - - -
    
    
    |-------------------------------------------------|
    |-------------------------------------------------| 
    |-------------------------------------------------| x1
    |-0-0-0-0-0-0-1-3-3-3-3-3-8-8-8-8-8-0-0-0-0-0-0-0-|
    |-0-0-0-0-0-0-1-3-3-3-3-3-8-8-8-8-8-0-0-0-0-0-0-0-|
    |-0-0-0-0-0-0-1-3-3-3-3-3-8-8-8-8-8-0-0-0-0-0-0-0-|
    PM  - - - - - - - - - - - - - - - - - - - - - - -
    
    
    Chorus - Guitar 1
    |----------------------|
    |-65-5-5-5--8-8-8-8-8-|
    |-5-5-5-5-5--7-7-7-7-7-| x4
    |-3-3-3-3-3--5-5-5-5-5-|
    |-3-3-3-3-3--5-5-5-5-5-|
    |----------------------|
    
    
    Chorus - Guitar 2
    |---------|
    |---------|
    |---------| x8
    |-0-0-0-0-|
    |-0-0-0-0-|
    |-0-0-0-0-|
    PM- - -
    
    
    |--------------------------------|
    |--------------------------------|
    |-5-7--5-7--5-7--5-4--6-4--5/73-| x2
    |-3-5--3-5--3-5--3-2--4-2--3/51-|
    |--------------------------------|
    |--------------------------------|
    
    
    |------------------------------|     |----------|
    |------------------------------|     |----------|
    |------------------------------|  x3 |--------5-|  x1
    |-0-0-0-0-0-0-0--0-0-0-0-0-0-0-|     |-3--10--3-|
    |-0-0-0-0-0-0-0--0-0-0-0-0-0-0-|     |-3--10--3-|
    |-0-0-0-0-0-0-0--0-0-0-0-0-0-0-|     |-3--10--3-|
    PM  - -   - -    - -   -   -
    
    
    Verse
    |----------------------------------------------------------|
    |----------------------------------------------------------|
    |----------------------------------------------------------| x1
    |-0-0-0-0-0-0-1-3-3-3-3-3-8-8-8-8-8-7-7-7-7-7-7-7--2-3-1-0-|
    |-0-0-0-0-0-0-1-3-3-3-3-3-8-8-8-8-8-7-7-7-7-7-7-7--2-3-1-0-|
    |-0-0-0-0-0-0-1-3-3-3-3-3-8-8-8-8-8-7-7-7-7-7-7-7--2-3-1-0-|
    PM  - - - - - - - - - - - - - - - - - - - - - - -  - - - -
    
    
    |----------------------------------------------------------|
    |----------------------------------------------------------| 
    |----------------------------------------------------------| x1
    |-0-0-0-0-0-0-1-3-3-3-3-3-8-8-8-8-8-0-0-0-0-0-0-0--2-3-1-0-|
    |-0-0-0-0-0-0-1-3-3-3-3-3-8-8-8-8-8-0-0-0-0-0-0-0--2-3-1-0-|
    |-0-0-0-0-0-0-1-3-3-3-3-3-8-8-8-8-8-0-0-0-0-0-0-0--2-3-1-0-|
    PM  - - - - - - - - - - - - - - - - - - - - - - -  - - - -
    
    
    |-------------------------------------------------|
    |-------------------------------------------------|
    |-------------------------------------------------| x1
    |-0-0-0-0-0-0-1-3-3-3-3-3-8-8-8-8-8-7-7-7-7-7-7-7-|
    |-0-0-0-0-0-0-1-3-3-3-3-3-8-8-8-8-8-7-7-7-7-7-7-7-|
    |-0-0-0-0-0-0-1-3-3-3-3-3-8-8-8-8-8-7-7-7-7-7-7-7-|
    PM  - - - - - - - - - - - - - - - - - - - - - - -
    
    
    |-------------------------------------------------|
    |-------------------------------------------------| 
    |-------------------------------------------------| x1
    |-0-0-0-0-0-0-1-3-3-3-3-3-8-8-8-8-8-0-0-0-0-0-0-0-|
    |-0-0-0-0-0-0-1-3-3-3-3-3-8-8-8-8-8-0-0-0-0-0-0-0-|
    |-0-0-0-0-0-0-1-3-3-3-3-3-8-8-8-8-8-0-0-0-0-0-0-0-|
    PM  - - - - - - - - - - - - - - - - - - - - - - -
    
    
    Chorus - Guitar 1
    |----------------------|
    |-65-5-5-5--8-8-8-8-8-|
    |-5-5-5-5-5--7-7-7-7-7-| x4
    |-3-3-3-3-3--5-5-5-5-5-|
    |-3-3-3-3-3--5-5-5-5-5-|
    |----------------------|
    
    
    Chorus - Guitar 2
    |---------|
    |---------|
    |---------| x8
    |-0-0-0-0-|
    |-0-0-0-0-|
    |-0-0-0-0-|
    PM- - -
    
    
    |--------------------------------|
    |--------------------------------|
    |-5-7--5-7--5-7--5-4--6-4--5/73-| x2
    |-3-5--3-5--3-5--3-2--4-2--3/51-|
    |--------------------------------|
    |--------------------------------|
    
    
    |------------------------------|     |----------|
    |------------------------------|     |----------|
    |------------------------------| x3  |--------5-|  x1
    |-0-0-0-0-0-0-0--0-0-0-0-0-0-0-|     |-3--10--3-|
    |-0-0-0-0-0-0-0--0-0-0-0-0-0-0-|     |-3--10--3-|
    |-0-0-0-0-0-0-0--0-0-0-0-0-0-0-|     |-3--10--3-|
    PM  - -   - -    - -   -   -
    
    
    Bridge - Guitar 1
    |-----------------------------------------------------|      |------|
    |-----------------------------------------------------|      |------|
    |-----------------------------------------------------| x4   |------| x1
    |-------------------------------------------4-x-3-x-2-|      |--8--|
    |-----------------------5p3-----------------4-x-3-x-2-|      |--8--|
    |-2h3p2--2h3p2--2h3p2--------2h3p2--2h3p2---4-x-3-x-2-|      |--8--|
    
    
    Bridge - Guitar 2
    |---------------------------------------------|
    |---------------------------------------------|
    |---------------------------------------------| x4
    |---------------------------------------------|
    |---------------------------------------------|
    |-0-0-0-0-0-0-0-0-0-0-0-0-0-0-0-0-0-0-0-0-0-0-|
    PM- - - - - - - - - - - - - - - - - - - - - -
    
    
    Clean
    |-----------------------------------------------------------------------------|
    |-------9-9--------9-9---------------9-9-------9-9--------------9-9-------9-9-|
    |---8----------8----------8------8---------8---------8------8---------8-------| x1
    |-6---6------6---6------6---6--5---5-----5---5-----5---5--6---6-----6---6-----|
    |-----------------------------------------------------------------------------|
    |-----------------------------------------------------------------------------|
    
    
    |----------|
    |----------|
    |--------5-|  x1
    |-3--10--3-|
    |-3--10--3-|
    |-3--10--3-|
    
    
    |--------------------------------|
    |--------------------------------|
    |-5-7--5-7--5-7--5-4--6-4--5/73-| x6
    |-3-5--3-5--3-5--3-2--4-2--3/51-|
    |--------------------------------|
    |--------------------------------|
    
    
    |----------|
    |----------|
    |--------5-|  x1
    |-3--10--3-|
    |-3--10--3-|
    |-3--10--3-|
    
    
    |-------|     |-----|
    |-------|     |-----|
    |-------| x1  |-----| x4
    |-1/81-|     |--0--|
    |-1/81-|     |--0--|
    |-1/81-|     |--0--|
    
    
    Outro
    |--------------------------------------------------------------------------|
    |--------------------------------------------------------------------------|
    |--------------------------------------------------------------------------| Repeat till end
    |-1-0--0-0-0-0-0--3-3--0-0--8-8-3--3-1--1-0--0-0-0-0-0--3-3--0-0-0-2-3-1-0-|
    |-1-0--0-0-0-0-0--3-3--0-0--8-8-3--3-1--1-0--0-0-0-0-0--3-3--0-0-0-2-3-1-0-|
    |-1-0--0-0-0-0-0--3-3--0-0--8-8-3--3-1--1-0--0-0-0-0-0--3-3--0-0-0-2-3-1-0-|
    PM- -  - - - - -  - -  - -  - - -  - -  - -  - - - - -  - -  - - - - - - -
     

    Тональность:

    Нет текста!



    Назад
    Рекомендуем посмотреть другие песни исполнителя «Killswitch Engage»:

    • Комментарии Facebook ()
    • Комментарии ВКонтакте



    Добавить в Избранное Браузера
    Сохранить здесь Очистить


    x

    0


    +
    -

    +
    -

    -

    Авторизация





    Зарегистрироваться

    M

    Дата и время

    • 17:54:26
       

    Социальные ссылки


    Наши приложения

    • Muzbank App Play Market
    • Muzbank Amazon App