MUZBANK



A Most Complete Bank Of Music Information

МУЗЫКАЛЬНО-ИНФОРМАЦИОННЫЙ БАНК

Поиск по сайту







    ККино • Электричка (аккорды и текст - chords & lyrics)


    751

    Print

    Видео «Электричка (Кино)»

    Видео клипы к песне подбираются автоматически сайтом youtube. Возможны некоторые несоответствия клипов песне.

    ↑ Спрятать рекламу ↑



    Download



    Intro
    E|---0--7--5--2-3-2-0------0----0-2-3-0-0----------|
    B|-----------------------3-1----1--------------0-1-|
    G|-------------------------------------------------|
    D|-------------------------------------------------|
    A|-------------------------------------------------|
    E|-------------------------------------------------|
    
    Bass intro:
    G|-----------------|----------------|
    D|-----------------|----------------|
    A|----------0-2-3--|----------0-1-2-|
    E|-0-0--0-3--------|-0-0--0-3-------|
    
    С басом идут аккорды:Em и C
    
    А после этого идёт такое:
    
    E|-3---3--3--4--3--4-|
    B|-4---4--4--5--4--5-|
    G|-3---3--3--4--3--4-|  4 раза
    D|-------------------|
    A|-------------------|
    E|-------------------|
    
    Этот проигрыш идёт в припеве
    
    Em               C   Em            C    Em CEmC
    Я вчера слишком поздно лёг, сегодня рано встал,
    Я вчера слишком поздно лёг, я почти не спал.
    Мне, наверно, с утра нужно было пойти к врачу,
    А теперь электричка везёт меня туда, куда я не хочу.
    
      Em         C         Em        C      Em C Em C
    Электричка везёт меня туда, куда я не хочу (2 раза).
    
    В тамбуре холодно, и в то же время как-то тепло,
    В тамбуре накурено, и в то же время как-то свежо.
    Почему я молчу, почему не кричу? Молчу.
    
    Электричка везёт меня туда, куда я не хочу (3 раза).
    

    Тональность:

    Нет текста!



    Назад
    Рекомендуем посмотреть другие песни исполнителя «Кино»:

    • Комментарии Facebook ()
    • Комментарии ВКонтакте



    Добавить в Избранное Браузера
    Сохранить здесь Очистить


    x

    0


    +
    -

    +
    -

    -

    Авторизация





    Зарегистрироваться

    M

    Дата и время

    • 15:30:23
       

    Социальные ссылки


    Наши приложения

    • Muzbank App Play Market
    • Muzbank Amazon App