MUZBANK



A Most Complete Bank Of Music Information

МУЗЫКАЛЬНО-ИНФОРМАЦИОННЫЙ БАНК

Поиск по сайту







    ККино • Когда твоя девушка больна (аккорды и текст - chords & lyrics)


    192

    Print

    Видео «Когда твоя девушка больна (Кино)»

    Видео клипы к песне подбираются автоматически сайтом youtube. Возможны некоторые несоответствия клипов песне.

    ↑ Спрятать рекламу ↑



    Download



    Вступление:
      G     D G     D G     D G   D   C       D       G       Em
    e|3-----2|3-----2|3-----2|3---2--|0------|-------|-------|-------|-
    b|3-----3|3-----3|3-----3|3---3--|1------|-------|-------|-------|-
    g|0-----2|0-----2|0-----2|0---2--|0------|-------|-------|-------|-
    d|0-----0|0-----0|0-----0|0---0--|2-----5|4-2-0--|-------|-------|-
    a|-------|-------|-------|-------|3--33--|------3|2----02|-------|-
    e|3------|3------|3------|3------|-------|-------|-------|3------|-
     
      C       D       G       Em      C       D       G     D G     D G     D G   D
    e|-------|-------|-------|-------|--0--0-|--2--2-|3-----2|3-----2|3-----2|3---2--|-
    b|-------|-------|-------|-------|-1--1--1-3--3--33-----3|3-----3|3-----3|3---3--|-
    g|-------|-------|-------|-------|0--0--0|2--2--2|0-----2|0-----2|0-----2|0---2--|-
    d|------2|0------|-------|2------|-------|-------|0-----0|0-----0|0-----0|0---0--|-
    a|---33--|--3-2-0|2----02|-------|-------|-------|-------|-------|-------|-------|-
    e|-------|-------|-------|-------|-------|-------|3------|3------|3------|3------|-
    
    G        Em
    День как день,
           C           D
    Только ты почему-то грустишь.
        G        Em
    И вокруг все поют,
           C          D
    Только ты один молчишь.
    Потерял аппетит
    И не хочешь сходить в кино.
    Ты идешь в магазин,
    Чтобы купить вино.
    
             C                   D
            Солнце светит, и растет трава,
                  G   Hm       Em D
            Но тебе она не нужна.
              C             D
            Все не так, и все не то,
                G       Hm          Em D
            Когда твоя девушка больна,
        C D            G
            Когда больна...
    
    Ты идешь в магазин,
    Головою поник,
    Как будто иссяк
    Чистый горный родник.
    Она где-то лежит,
    Ест мед и пьет аспирин,
    И вот ты идешь
    На вечеринку один.
    
            Солнце светит, и растет трава,
            Но тебе она не нужна.
            Все не так, и все не то,
            Когда твоя девушка больна.
            На вечеринку один,
            Когда твоя девушка больна.
    

    Тональность:

    Нет текста!



    Назад
    Рекомендуем посмотреть другие песни исполнителя «Кино»:

    • Комментарии Facebook ()
    • Комментарии ВКонтакте



    Добавить в Избранное Браузера
    Сохранить здесь Очистить


    x

    0


    +
    -

    +
    -

    -

    Авторизация





    Зарегистрироваться

    M

    Дата и время

    • 15:39:50
       

    Социальные ссылки


    Наши приложения

    • Muzbank App Play Market
    • Muzbank Amazon App