MUZBANK



A Most Complete Bank Of Music Information

МУЗЫКАЛЬНО-ИНФОРМАЦИОННЫЙ БАНК

Поиск по сайту







    ККино • Кукушка (аккорды и текст - chords & lyrics)


    361

    Print

    Видео «Кукушка (Кино)»

    Видео клипы к песне подбираются автоматически сайтом youtube. Возможны некоторые несоответствия клипов песне.

    ↑ Спрятать рекламу ↑



    Download



      Am              C               G
    -|-------|-------|-------|-------|-------|-------|-------|-
    -|-------|-------|-------|-------|-------|-------|-------|-
    -|-------|-------|-------|----0--|-------|-------|-------|-
    -|-------|2------|2------|2------|0------|-------|-------|-
    -|0-----3|----3--|------3|-------|------3|2------|-------|-
    -|-------|-------|-------|-------|-------|-------|-------|-
    
    варианты окончаний:
    -|-------|- -|-------|- -|-------|- -|-------|-
    -|-------|- -|-------|- -|-------|- -|-------|-
    -|-------|- -|-------|- -|-------|- -|------2|-
    -|-------|- -|------0|- -|-------|- -|--2----|-
    -|3-2-0--|- -|3-2-3--|- -|3-2-0--|- -|3------|-
    -|------3|- -|-------|- -|------3|- -|-------|-
    
    Am
    Песен еще ненаписанных, сколько?
             G    Dm    Am
    Скажи, кукушка, пропой.
     Am
    В городе мне жить или на выселках,
                                G   Dm
    Камнем лежать или гореть звездой?
                                  Am
                             Звездой.
    
             G      F              Am
            Солнце мое, взгляни на меня,-
            G      F                   Am
            Моя ладонь превратилась в кулак,
             G          F            Am
            И если есть порох, дай огня.
            GF   Am
            Вот так...
    
    Am C F
    
    Кто пойдет по следу одинокому?
    Сильные да смелые
    Головы сложили в поле, в бою.
    Мало кто остался в светлой памяти,
    В трезвом уме да с твердой рукой в строю,
                                     в строю.
    
            Солнце мое, взгляни на меня,-
            Моя ладонь превратилась в кулак,
            И если есть порох, дай огня.
            Вот так...
    
    Где же ты теперь, воля вольная?
    С кем же ты сейчас
    Ласковый рассвет встречаешь? Ответь.
    Хорошо с тобой, да плохо без тебя,
    Голову да плечи терпеливые под плеть,
                               под плеть.
    
            Солнце мое, взгляни на меня,-
            Моя ладонь превратилась в кулак,
            И если есть порох, дай огня.
            Вот так...

    Тональность:

    Нет текста!



    Назад
    Рекомендуем посмотреть другие песни исполнителя «Кино»:

    • Комментарии Facebook ()
    • Комментарии ВКонтакте



    Добавить в Избранное Браузера
    Сохранить здесь Очистить


    x

    0


    +
    -

    +
    -

    -

    Авторизация





    Зарегистрироваться

    M

    Дата и время

    • 07:34:56
       

    Социальные ссылки


    Наши приложения

    • Muzbank App Play Market
    • Muzbank Amazon App