MUZBANK



A Most Complete Bank Of Music Information

МУЗЫКАЛЬНО-ИНФОРМАЦИОННЫЙ БАНК

Поиск по сайту







    ККино • Спокойная ночь (аккорды и текст - chords & lyrics)


    254

    Print

    Видео «Спокойная ночь (Кино)»

    Видео клипы к песне подбираются автоматически сайтом youtube. Возможны некоторые несоответствия клипов песне.

    ↑ Спрятать рекламу ↑



    Download



    Вступление:
      Am    Am/C      C               G               Dm    C  Hm C
    -|-------|-------|3------|-------|-------|-------|-------|-------|
    -|-------|-------|1------|-------|-------|-------|-------|-------|
    -|-------|-------|0------|-------|-------|-------|-------|-------|
    -|-------|-------|2------|-------|------0|0-0-0-0|0-0-0--|-------|
    -|0-0-0-3|3-3-3-3|3-3-3-3|3-3-3-3|2-2-2--|-------|------3|3-2-3-3|
    -|-------|-------|-------|-------|-------|-------|-------|-------|
    
      Am     Am/C   C                 G
    Крыши домов дрожат под тяжестью дней,
       Dm              Am      Am/C C
    Небесный пастух пасет облака,
     Am        Am/C   C             G
    Город стреляет в ночь дробью огней,
        Dm                Am        Am/C C
    Но ночь сильней, ее власть велика.
    
             F                 Em
            Тем, кто ложится спать -
                         Am Am/C C
            Спокойного сна.
        F C            Am
            Спокойная ночь.
             F                 Em
            Тем, кто ложится спать -
                         Am Am/C C
            Спокойного сна.
        F C            Am
            Спокойная ночь.
    
    Я ждал это время, и вот это время пришло,
    Те, кто молчал, перестали молчать.
    Те, кому нечего ждать, садятся в седло,
    Их не догнать, уже не догнать.
    
            Тем, кто ложится спать -
            Спокойного сна.
            Спокойная ночь.
    
       Am                                G  Dm C Hm C
    Соседи приходят, им слышится стук копыт,
       Dm                       Am
    Мешают уснуть, тревожат их сон.
    Те, кому нечего ждать, отправляются в путь
    Те, кто спасен, те, кто спасен.
    
            Тем, кто ложится спать -
            Спокойного сна.
            Спокойная ночь.
    
    Соло в конце:
      F               Em              Am
    -|-------|-------|-------|-------|-------|-------|-------|-------|
    -|-------|-------|-------|-------|-------|-------|-------|-------|
    -|-------|-------|-------|-------|-------|-------|-------|-------|
    -|-------|----5--|3-----2|-------|-------|-------|-------|----5--|
    -|------3|-------|-------|----2--|2-----3|----5--|2-----3|-------|
    -|1------|-------|-------|-------|-------|-------|-------|-------|
    
      F               C               Am
    -|-------|-------|-------|-------|-------|-------|-------|
    -|-------|-------|-------|-------|-------|-------|-------|
    -|-------|-------|-------|-------|-------|-------|-------|
    -|-------|----5--|-------|-------|-------|-------|-------|
    -|------3|-------|3-----5|----2--|2--3--5|5--3--2|2--3--5|
    -|1------|-------|-------|-------|-------|-------|-------|
    
    варианты окончания:
     |-------| |-------|
     |-------| |-------|
     |-------| |-------|
     |5--3--2| |2--0--2|
     |-------| |-------|
     |-------| |-------|
    

    Тональность:

    Нет текста!



    Назад
    Рекомендуем посмотреть другие песни исполнителя «Кино»:

    • Комментарии Facebook ()
    • Комментарии ВКонтакте



    Добавить в Избранное Браузера
    Сохранить здесь Очистить


    x

    0


    +
    -

    +
    -

    -

    Авторизация





    Зарегистрироваться

    M

    Дата и время

    • 12:55:28
       

    Социальные ссылки


    Наши приложения

    • Muzbank App Play Market
    • Muzbank Amazon App