MUZBANK



A Most Complete Bank Of Music Information

МУЗЫКАЛЬНО-ИНФОРМАЦИОННЫЙ БАНК

Поиск по сайту







    KKiss • Firehouse (аккорды и текст - chords & lyrics)


    250

    Print

    Видео «Firehouse (Kiss)»

    Видео клипы к песне подбираются автоматически сайтом youtube. Возможны некоторые несоответствия клипов песне.

    ↑ Спрятать рекламу ↑



    Download



    intro 7x
    e-----------------------------|----|---------------------------|
    b-2-3-5-3-2-3-2-7-8-7-8-7-8-7-|-10-|-2-3-5-3-2-3-2-------------|
    g-2-2-4-2-2-2-2-7-7-7-7-7-7-7-|--9-|-2-2-4-2-2-2-2-7^~~~7^~~~~-|
    d-2-4-6-4-2-4-2-7-9-7-9-7-9-7-|--7-|-2-4-6-4-2-4-2-------------|
    a-0-------0---0---------------|----|-0-------0---0-------------|
    E-----------------------------|----|---------------------------|
    
    e---------------------2323232------------------------23232232---|
    b---------------------3333333-10---------------------33333333-2-|
    g---------------------2322222--9---------------------22222222-2-|
    d------------------------------7------------------------------2-|
    a-------------------------------------------------------------0-|
    E-5-3-0-3-0-5-3-0-3-0------------5-3-0-3-0-5-3-0-3-0------------|
    
    
    e---x---x-323232--|---x----x-323232------------------------------------
    b-2-x-2-x-3333332-|-2-x--2-x-3333332-11^11^11^11^r9h11-----------------
    g-2-x-2-x-2222222-|-2-x--2-x-2222222------------------10^10^10^10^10^--
    d-2-x-2-x-------2-|-2-x--2-x-------2-----------------------------------
    a-0-x-0-x-------0-|-0-x--0-x-------0-----------------------------------
    E---x---x---------|-x----x---------------------------------------------
    
    
    e------------------------------|---x-------------323232---|-----------------
    b-------7-----6-----5----3-3-8-|-2-x--2----------333333-2-|11^11^11^11^r9h11
    g-8~~--------------------2-2-7-|-2-x--2--4-4-2---222222-2-|-----------------
    d-----/8---7-----6-----5-4-4-9-|-2-x--2--------4--------2-|-----------------
    a------------------------------|-0-x--0-----------------0-|-----------------
    E------------------------------|---x----------------------|-----------------
    
    [ 2 x ]
    e-------------------------6------7------8----------|------------------232323
    b--------------------------------------------3-3-8-|------------------333333
    g-10^10^10^10^10^r8~~-/7-----8------9------9-2-2-7-|------------------222222
    d--------------------------------------------4-4-9-|------------------------
    a--------------------------------------------------|------------------------
    E--------------------------------------------------|-5-3-0-3-0--------------
    
    
    e-2-----------------------2323232-------------------------------------------
    b-3-2---------------------3333333-2-----------------------------------------
    g-2-2---------------------2222222-2----------9--9-9---10--10-10---12--12-12-
    d---2-----------------------------2-9--9-9---9--9-9---10--10-10---12--12-12-
    a---0-----------------------------0-9--9-9---7--7-7----8---8--8---10--10-10-
    E-----5-3-0-3-0-5-3-0-3-0-----------7--7-7----------------------------------
    
    
    solo
    3x 2x
    e-----------|------------------------------------------|-----------------|
    b-----------|------------------------------------------|-----------------|
    g-7^x7^x7^x-|-7-7--------------5~~---------------------|-----------------|
    d-----------|-----5~~~-----5-7-----7-5---5-7-----------|---5-5--5-5--5-7-|
    a-----------|----------5-7-------------7-----x6-x5-x3--|-7---------------|
    E-----------|------------------------------------------|-----------------|
    
    
    e--------------------------------|-----------------------|------------------
    b-----------------------------8~-|-8-8--8-8--8-8--8-8----|------------------
    g-7^--7-7--7-7--7-7--7-7--5~~----|--------------------5~-|---------------5-5
    d--------------------------------|-----------------------|--------5-5--7----
    a--------------------------------|-----------------------|-5-5--7-----------
    E--------------------------------|-----------------------|------------------
    
    
    e-------------------------------------------------|-------------------------
    b---------------------5-7-----5-8-6-8^~~~-8-5-----|-------------------------
    g---------5-7-----5-7-----5-7-----------------8-5-|-9~---11~--12~--12-10-13~
    d-----5-7-----5-7---------------------------------|---9~---9~---10~---------
    a-5-7---------------------------------------------|-------------------------
    E-------------------------------------------------|-------------------------
    
    
    [ 2x ]
    e----------------------------------------------------3-2-3-2-3-2------------
    b--2-3-5-3-2-3-2-7-8-7-8-7-8-7-----------------------3-3-3-3-3-3------------
    g--2-2-4-2-2-2-2-7-7-7-7-7-7-7-7-5-------------------2-2-2-2-2-2------------
    d--2-4-6-4-2-4-2-7-9-7-9-7-9-7----7--5--------------------------------------
    a--0-------0---0----------------------5-7-----------------------------------
    E-----------------------------------------5-3-0-3-0---------------5-3-0-3-0-
    
    
    e----------------------------------------------------------||
    b--------------------10-----------------------------10-----||
    g---------------------9------------------------------9-----||
    d---4⁄⁄5/4-2---2⁄⁄5--2--7------------4⁄⁄5/4-2---2⁄⁄5--2--7-||
    a-----------5------------------------------5---------------||
    E-0----------------------5-3-0-3-0-------------------------||
    

    Тональность:

    Нет текста!



    Назад
    Рекомендуем посмотреть другие песни исполнителя «Kiss»:

    • Комментарии Facebook ()
    • Комментарии ВКонтакте



    Добавить в Избранное Браузера
    Сохранить здесь Очистить


    x

    0


    +
    -

    +
    -

    -

    Авторизация





    Зарегистрироваться

    M

    Дата и время

    • 01:12:03
       

    Социальные ссылки


    Наши приложения

    • Muzbank App Play Market
    • Muzbank Amazon App