MUZBANK



A Most Complete Bank Of Music Information

МУЗЫКАЛЬНО-ИНФОРМАЦИОННЫЙ БАНК

Поиск по сайту







    KKiss • Rock And Roll All Night (аккорды и текст - chords & lyrics)


    296

    Print

    Видео «Rock And Roll All Night (Kiss)»

    Видео клипы к песне подбираются автоматически сайтом youtube. Возможны некоторые несоответствия клипов песне.

    ↑ Спрятать рекламу ↑



    Download


     
    
    
    Rock and Roll all nite by Kiss
    Tabbed in Standard Tuning
    
    (Intro)
    G:4/6-6---6-6--|
    D:------6-----6|
    A:-------------|
    E:-------------|
    
    G:--------------------|     |--------------------|     |4/6-6---6-6--|
    D:--------------------| -x4 |--------------------| -x1 |------6-----6|
    A:-----------6-6-4-3--|     |4-4-3-1----6-6-4-3--|     |-------------|
    E:4-4-2-1-0----------6|     |--------4----------6|     |-------------|
    
    G:--------------------|     |--------------------|     |4/6-6---6-6--|
    D:--------------------| -x2 |--------------------| -x1 |------6-----6|
    A:-----------6-6-4-3--|     |4-4-3-1----6-6-4-3--|     |-------------|
    E:4-4-2-1-0----------6|     |--------4----------6|     |-------------|
    
    G:--------------------------------|
    D:-----------------4-4-4-4-4-4-4-4|
    A:7-7-7-7-7-7-7-7-----------------|
    E:--------------------------------|
    
    G:----------------------------------------------|
    D:----------------------------------------------|
    A:--4-4-3-1----6-6-4-3----4-4-3-1---6-6-4-3-----|
    E:4---------4----------6----------4---------6--4|
    
    G:4/6-6---6-6--|
    D:------6-----6|
    A:-------------|
    E:-------------|
    
    G:--------------------|     |--------------------|     |4/6-6---6-6--|
    D:--------------------| -x2 |--------------------| -x1 |------6-----6|
    A:-----------6-6-4-3--|     |4-4-3-1----6-6-4-3--|     |-------------|
    E:4-4-2-1-0----------6|     |--------4----------6|     |-------------|
    
    G:--------------------|     |--------------------|     |4/6-6---6-6--|
    D:--------------------| -x2 |--------------------| -x1 |------6-----6|
    A:-----------6-6-4-3--|     |4-4-3-1----6-6-4-3--|     |-------------|
    E:4-4-2-1-0----------6|     |--------4----------6|     |-------------|
    
    G:--------------------------------|
    D:-----------------4-4-4-4-4-4-4-4|
    A:7-7-7-7-7-7-7-7-----------------|
    E:--------------------------------|
    
    G:----------------------------------------------|
    D:----------------------------------------------|
    A:--4-4-3-1----6-6-4-3----4-4-3-1---6-6-4-3-----|
    E:4---------4----------6----------4---------6--4|
    
    G:4/6-6---6-6--|
    D:------6-----6|
    A:-------------|
    E:-------------|
    
    G:--------------------|     |--------------------|     |4/6-6---6-6--|
    D:--------------------| -x2 |--------------------| -x1 |------6-----6|
    A:-----------6-6-4-3--|     |4-4-3-1----6-6-4-3--|     |-------------|
    E:4-4-2-1-0----------6|     |--------4----------6|     |-------------|
    
    G:--------------------|     |--------------------|     |4/6-6---6-6--|
    D:--------------------| -x2 |--------------------| -x1 |------6-----6|
    A:-----------6-6-4-3--|     |4-4-3-1----6-6-4-3--|     |-------------|
    E:4-4-2-1-0----------6|     |--------4----------6|     |-------------|
    
    G:--------------------------------|
    D:-----------------4-4-4-4-4-4-4-4|
    A:7-7-7-7-7-7-7-7-----------------|
    E:--------------------------------|
    
    G:----------------------------------------------|
    D:----------------------------------------------|
    A:--4-4-3-1----6-6-4-3----4-4-3-1---6-6-4-3-----|
    E:4---------4----------6----------4---------6--4|
    
    G:4/6-6---6-6--|
    D:------6-----6|
    A:-------------|
    E:-------------|
    
    G:--------------------------------|
    D:-----------------4-4-4-4-4-4-4-4|
    A:7-7-7-7-7-7-7-7-----------------|
    E:--------------------------------|
    
    (Outro)
    G:6-4---4--------------|
    D:----6---6-4---4------|
    A:------------6---6-4--|
    E:--------------------4|
    
    Thanks, please rate it after you learn it.
    Tabbed by:
    _TheBassist01_
     

    Тональность:

    Нет текста!



    Назад
    Рекомендуем посмотреть другие песни исполнителя «Kiss»:

    • Комментарии Facebook ()
    • Комментарии ВКонтакте



    Добавить в Избранное Браузера
    Сохранить здесь Очистить


    x

    0


    +
    -

    +
    -

    -

    Авторизация





    Зарегистрироваться

    M

    Дата и время

    • 09:10:18
       

    Социальные ссылки


    Наши приложения

    • Muzbank App Play Market
    • Muzbank Amazon App