MUZBANK



A Most Complete Bank Of Music Information

МУЗЫКАЛЬНО-ИНФОРМАЦИОННЫЙ БАНК

Поиск по сайту







    KKittie • In Winter (аккорды и текст - chords & lyrics)


    284

    Print

    Видео «In Winter (Kittie)»

    Видео клипы к песне подбираются автоматически сайтом youtube. Возможны некоторые несоответствия клипов песне.

    ↑ Спрятать рекламу ↑



    Download


     
    
    
    this is the easy way to do this song
    
    e-------------------------------------------------------------------
    b-------------------------------------------------------------------
    g-------------------------------------------------------------------
    d---00000-000-0-000000-000-0-000000-000-0-000000-000-0--------------
    a---00000-000-0-000000-000-0-000000-000-0-000000-000-0--------------
    d---00000-000-0-000000-000-0-000000-000-0-000000-000-0-------------- x3
    
    e-----333333-333-3-333333-333-3-----333333-333-3-333333-333-3-
    b-----222222-222-2-222222-222-2-----333333-333-3-333333-333-3-
    g-----333333-333-3-333333-333-3-----000000-000-0-000000-000-0-
    d-----------------------------------222222-222-2-222222-222-2-
    a-----------------------------------333333-333-3-333333-333-3-
    d------------------------------------------------------------- x2
    
    e-----33333----------33333----------33333---------33333---------
    b-----22222----------22222----------33333---------33333---------
    g-----33333----------33333----------00000---------00000---------
    d------------4-5-4---------4-5-4----22222-4-5-4---22222---4-5-4-
    a------------4-5-4---------4-5-4----33333-4-5-4---33333---4-5-4-
    d------------4-5-4---------4-5-4----------4-5-4-----------4-5-4-
    
    e------------------------------------------------------------------------
    b------------------------------------------------------------------------
    g------------------------------------------------------------------------
    d---000000-000-0--000000-000-0--000000-000--0-000000-000-0---------------
    a---000000-000-0--000000-000-0--000000-000--0-000000-000-0---------------
    d---000000-000-0--000000-000-0--000000-000--0-000000-000-0(let ring out)-
    
    and that is it
    keep up the tacoey goodness everyone
    agent rad
     

    Тональность:

    Нет текста!



    Назад
    Рекомендуем посмотреть другие песни исполнителя «Kittie»:

    • Комментарии Facebook ()
    • Комментарии ВКонтакте



    Добавить в Избранное Браузера
    Сохранить здесь Очистить


    x

    0


    +
    -

    +
    -

    -

    Авторизация





    Зарегистрироваться

    M

    Дата и время

    • 21:00:38
       

    Социальные ссылки


    Наши приложения

    • Muzbank App Play Market
    • Muzbank Amazon App