MUZBANK



A Most Complete Bank Of Music Information

МУЗЫКАЛЬНО-ИНФОРМАЦИОННЫЙ БАНК

Поиск по сайту







    KKittie • Spit (аккорды и текст - chords & lyrics)


    273

    Print

    Видео «Spit (Kittie)»

    Видео клипы к песне подбираются автоматически сайтом youtube. Возможны некоторые несоответствия клипов песне.

    ↑ Спрятать рекламу ↑



    Download


     
    
    
    Artist: Kittie
    Song: Spit
    
    
    Tuning: CGCFAD
    
    - = P.M.
    
    |-----------------     ---------
    |-----------------     ---------
    |----------------- x7  ---------
    |-----------------     ---------
    |-----------------     ---------
    |-0-2-1-0-2-1-0-3-     -0-2-1-3-
    
    |-----------
    |-----------
    |-----------
    |-0---0---0-
    |-0---0---0-
    |-0---0---0-
    
    |-----------------
    |-----------------
    |----------------- x16
    |-----------------
    |-0-2-1-0-2-1-0-3-
    |-0-2-1-0-2-1-0-3-
    
    |----------------------
    |----------------------
    |---------------------- x4
    |-2-2-2-2-2-2-2-2-2--1-
    |-2-2-2-2-2-2-2-2-2--1-
    |-2-2-2-2-2-2-2-2-2--1-
      - - -   - - - -
    
    |-----------------
    |-----------------
    |----------------- x4
    |-----------------
    |-----------------
    |-0-2-1-0-2-1-0-3-
    
    |-----------------
    |-----------------
    |----------------- x16
    |-----------------
    |-0-2-1-0-2-1-0-3-
    |-0-2-1-0-2-1-0-3-
    
    |----------------------
    |----------------------
    |---------------------- x4
    |-2-2-2-2-2-2-2-2-2--1-
    |-2-2-2-2-2-2-2-2-2--1-
    |-2-2-2-2-2-2-2-2-2--1-
      - - -   - - - -
    
    |-------------------------------------
    |-7-7-7-7-7-7-7-7---7-7-7-7-7-7-7-7--- 
    |------------------------------------- x2
    |-------------------------------------
    |-------------------------------------
    |-------------------------------------
    
    |------------------------
    |------------------------
    |------------------------
    |------------------------
    |------------------------
    |-1-2--1-2--1-2--1-4-4-4-
    
    |---
    |-7-
    |---
    |---
    |---
    |---
    
    |------------------------------
    |------------------------------
    |------------------------------ x8
    |-1-1-1-1-1-1-1-1-1-1--4-4-4-4-
    |-1-1-1-1-1-1-1-1-1-1--4-4-4-4-
    |-1-1-1-1-1-1-1-1-1-1--4-4-4-4-
    
    |-----------------
    |-----------------
    |----------------- x2
    |-----------------
    |-----------------
    |-0-2-1-0-2-1-0-3-
    
       
    
     made by: Cristofher Wikstrom  Nickname: RUNE   
    Email: chad_muska3000@hotmail.com
     

    Тональность:

    Нет текста!



    Назад
    Рекомендуем посмотреть другие песни исполнителя «Kittie»:

    • Комментарии Facebook ()
    • Комментарии ВКонтакте



    Добавить в Избранное Браузера
    Сохранить здесь Очистить


    x

    0


    +
    -

    +
    -

    -

    Авторизация





    Зарегистрироваться

    M

    Дата и время

    • 19:05:40
       

    Социальные ссылки


    Наши приложения

    • Muzbank App Play Market
    • Muzbank Amazon App