MUZBANK



A Most Complete Bank Of Music Information

МУЗЫКАЛЬНО-ИНФОРМАЦИОННЫЙ БАНК








    KKittie • What I Always Wanted (аккорды и текст - chords & lyrics)


    221

    Print

    Видео «What I Always Wanted (Kittie)»

    Видео клипы к песне подбираются автоматически сайтом youtube. Возможны некоторые несоответствия клипов песне.

    ↑ Спрятать рекламу ↑



    Download



     
    
    
    What I Always Wanted
    Kittie
    Oracle
    
    Note: These Are The Individual Riffs Of The Song, Figure Out When To Play Them, And How Many Times You Have To Play Them.
    
    Intro
    D:----------------------------|
    A:----------------------------|
    F:----------------------------|
    C:-3-3-4-4-0-1--3-3-3-4-4-0-1-|
    G:-3-3-4-4-0-1--3-3-3-4-4-0-1-|
    C:-3-3-4-4-0-1--3-3-3-4-4-0-1-|
    
    Verse
    D:---------------------------------|
    A:---------------------------------|
    F:---------------------------------|
    C:-4-4-4-4-4-4-4-0-3-3-3-3-3-3-3-3-|
    G:-4-4-4-4-4-4-4-0-3-3-3-3-3-3-3-3-|
    C:-4-4-4-4-4-4-4-0-3-3-3-3-3-3-3-3-|
    
    Chorus
    D:----------------------------------------------------------
    A:----------------------------------------------------------
    F:----------------------------------------------------------
    C:-X-X-4/3-3-3-3--X-X-4/3-3-3-3--X-X-4/3-3-3-3p2-2-2-2/7-7-7
    G:-X-X-4/3-3-3-3--X-X-4/3-3-3-3--X-X-4/3-3-3-3p2-2-2-2/7-7-7
    C:-X-X-4/3-3-3-3--X-X-4/3-3-3-3--X-X-4/3-3-3-3p2-2-2-2/7-7-7
    
    Outro
    D:-------------|
    A:-------------|
    F:-------------|
    C:-X-X-4-3-4-5-|
    G:-X-X-4-3-4-5-|
    C:-X-X-4-3-4-5-|
     

    Тональность:

    Нашли ошибку?



    Назад
    Рекомендуем посмотреть другие песни исполнителя «Kittie»:

    • Комменты Fb ()
    • Комменты ВК



    Добавить в Избранное Браузера
    Сохранить здесь Очистить


    x

    0


    +
    -

    +
    -

    -

    Авторизация





    Зарегистрироваться

    M

    Дата и время

    • 05:25:16
       

    Социальные ссылки


    Наши приложения

    • Muzbank App Play Market
    • Muzbank Amazon App