MUZBANK



A MOST COMPLETE BANK OF MUSIC INFORMATION

МУЗЫКАЛЬНО-ИНФОРМАЦИОННЫЙ БАНК







    KKlank • Fall (аккорды и текст - chords & lyrics)


    293

    Print

    Видео «Fall (Klank)»

    Видео клипы к песне подбираются автоматически сайтом youtube. Возможны некоторые несоответствия клипов песне.

    ↑ Спрятать рекламу ↑





     
    
    
    Klank - Fall
    Submitted By: Schecter Man
    
    Tabber: John Cukras
    Email: riffreaper@yahoo.com
    
    Tuning: Normal
    
    Riff 1:
    E---------------------------------------
    B---------------------------------------
    G---------------------------------------
    D---------------------------------------
    A-9-9/7-9/7-9-9/7-9/7-9-9/7-9/7-7777-55-
    E-9-9/7-9/7-9-9/7-9/7-9-9/7-9/7-7777-55-
    
    Riff 2:
    E------------------------------------
    B------------------------------------
    G-5-3-2------------------------------
    D-------3----------------------------
    A--------------5/6-----5/6-----5/6-7-
    E----------000-5/6-000-5/6-000-5/6-7-
    pm         ...     ...     ...
    
    (during the little solo thing, riff 1 is played underneath it)
    
    Solo:
    E----------------------------------------------------------------------------------------------------------
    B-1111111-777777-111111-999999-101010101010/1111111/1212121212/131313/141414/1515-555-7^777777-555-9^99999- (repeat few times,
    G---------------------------------------------------------------------------------------------------------- then do slide 10-15
    D----------------------------------------------------------------------------------------------------------  again)
    A----------------------------------------------------------------------------------------------------------
    E----------------------------------------------------------------------------------------------------------
    
    Riff 3:
    E-------------------------------------------------
    B-------------------------------------------------
    G-------------------------------------------------
    D-------------------------------------------------
    A-1111-11/9--9/11-11/9-9999-1111-11/9-99--9/9--10-
    E-9-9--9/-7--7/9--9/-7-7777-9-9--9/-7-77-11/11-12-
     

    Тональность:

    Это должно быть в ТОП-листе! - Топ-лист композиций



    Назад
    Рекомендуем посмотреть другие песни исполнителя «Klank»:

    • Комменты Fb ()
    • Комменты ВК



    Добавить в Избранное Браузера
    Сохранить здесь Очистить


    x

    0


    +
    -

    +
    -

    -

    Авторизация





    Зарегистрироваться

    M

    Дата и время

    • 17:45:23
       

    Социальные ссылки


    Наши приложения

    • Muzbank App Play Market
    • Muzbank Amazon App