MUZBANK



A Most Complete Bank Of Music Information

МУЗЫКАЛЬНО-ИНФОРМАЦИОННЫЙ БАНК

Поиск по сайту







    KKnopfler Mark • Sultans Of Swing Live (аккорды и текст - chords & lyrics)


    377

    Print

    Видео «Sultans Of Swing Live (Knopfler Mark)»

    Видео клипы к песне подбираются автоматически сайтом youtube. Возможны некоторые несоответствия клипов песне.

    ↑ Спрятать рекламу ↑



    Download


     
    
    
    Sultans of Swing                             Mark Knopfler
    tuning: standard
    h=hammer on
    p=pull off
    ~=vibrato              
    tabbed by Johan Lindahl.
    
    e--------------------------------|
    B----------10-------------10~----|
    G---10-h12----h12-p10------------|
    D---------------------h12--------|
    A--------------------------------|
    E--------------------------------|
    
    
    e----------------------|
    B---10-----------11~---|
    G------h12-p10---------|
    D----------------------|
    A----------------------|
    E----------------------|
    
    
    e-----------------------------------|
    B----------10-----------------------|
    G---10-h12----h12-p10---12~--10-12~-|
    D-----------------------------------|
    A-----------------------------------|
    E-----------------------------------|
    
    
    e--------------------------------|
    B----------10-------------10~----|
    G---10-h12----h12-p10------------|
    D---------------------h12--------|
    A--------------------------------|
    E--------------------------------|
    
    
    e----------------------|
    B---10-----------11~---|
    G------h12-p10---------|
    D----------------------|
    A----------------------|
    E----------------------|
    
    
    e---10--------10-------------------|
    B------13-p11----13~----------13~--|
    G---------------------12-12~-------|
    D----------------------------------|
    A----------------------------------|
    E----------------------------------|
    
    
    
    e--------------------------------|
    B----------10-------------10~----|
    G---10-h12----h12-p10------------|
    D---------------------h12--------|
    A--------------------------------|
    E--------------------------------|
    
    
    e----------------------|
    B---10-----------11~---|
    G------h12-p10---------|
    D----------------------|
    A----------------------|
    E----------------------|
    
    
    e------------------------------------------------|
    B----------10------------------------10--11--13~-|
    G---10-h12----h12-p10---12~--10--12--------------|
    D------------------------------------------------|
    A------------------------------------------------|
    E------------------------------------------------|
    
    
    
    e--------------------------------|
    B----------10-------------10~----|
    G---10-h12----h12-p10------------|
    D---------------------h12--------|
    A--------------------------------|
    E--------------------------------|
    
    
    e----------------------|
    B---10-----------11~---|
    G------h12-p10---------|
    D----------------------|
    A----------------------|
    E----------------------|
    
    
    e---10--------10-----------------------|
    B------13-p11----13~-------------------|
    G---------------------12-12~--14~--14--|
    D--------------------------------------|
    A--------------------------------------|
    E--------------------------------------|
    
    
    e--------------------------------|
    B----------10-------------10~----|
    G---10-h12----h12-p10------------|
    D---------------------h12--------|
    A--------------------------------|
    E--------------------------------|
    
    
    e----------------------|
    B---10-----------11~---|
    G------h12-p10---------|
    D----------------------|
    A----------------------|
    E----------------------|
    
    
    e--------------------------------------------|
    B----------10--------------------------------|
    G---10-h12----h12-p10---12~--10-12~--14~--14-|
    D--------------------------------------------|
    A--------------------------------------------|
    E--------------------------------------------|
    
    
    e--------------------------------|
    B----------10-------------10~----|
    G---10-h12----h12-p10------------|
    D---------------------h12--------|
    A--------------------------------|
    E--------------------------------|
    
    
    e----------------------|
    B---10-----------11~---|
    G------h12-p10---------|
    D----------------------|
    A----------------------|
    E----------------------|
    
    
    
    e---10--------10---------------13-12-------|
    B------13-p11----13~-----------------15-13-|
    G---------------------12-12~---------------|
    D------------------------------------------|
    A------------------------------------------|
    E------------------------------------------|
    
    
    
    e--------------------------------|
    B----------10-------------10~----|
    G---10-h12----h12-p10------------|
    D---------------------h12--------|
    A--------------------------------|
    E--------------------------------|
    
    
    e----------------------|
    B---10-----------11~---|
    G------h12-p10---------|
    D----------------------|
    A----------------------|
    E----------------------|
    
    
    e----------------------------------------|
    B---10---------------------10-11-13~-13~-|
    G------h12-p10--12~--10-12---------------|
    D----------------------------------------|
    A----------------------------------------|
    E----------------------------------------|
    
    
    e--------------------------------|
    B----------10-------------10~----|
    G---10-h12----h12-p10------------|
    D---------------------h12--------|
    A--------------------------------|
    E--------------------------------|
    
    
    e----------------------|
    B---10-----------11~---|
    G------h12-p10---------|
    D----------------------|
    A----------------------|
    E----------------------|
    
    
    e---10--------10---------------13-12-------|
    B------13-p11----13~-----------------15-13-|
    G---------------------12-12~---------------|
    D------------------------------------------|
    A------------------------------------------|
    E------------------------------------------|
     

    Тональность:

    Нет текста!



    Назад
    Рекомендуем посмотреть другие песни исполнителя «Knopfler Mark»:

    • Комментарии Facebook ()
    • Комментарии ВКонтакте



    Добавить в Избранное Браузера
    Сохранить здесь Очистить


    x

    0


    +
    -

    +
    -

    -

    Авторизация





    Зарегистрироваться

    M

    Дата и время

    • 02:55:16
       

    Социальные ссылки


    Наши приложения

    • Muzbank App Play Market
    • Muzbank Amazon App