MUZBANK



A Most Complete Bank Of Music Information

МУЗЫКАЛЬНО-ИНФОРМАЦИОННЫЙ БАНК

Поиск по сайту







    KKorn • Big Black Kock (аккорды и текст - chords & lyrics)


    346

    Print

    Видео «Big Black Kock (Korn)»

    Видео клипы к песне подбираются автоматически сайтом youtube. Возможны некоторые несоответствия клипов песне.

    ↑ Спрятать рекламу ↑



    Download


     
    
    
    Tabber: Patrick Tilejut Kiener (patrickkiener@yahoo.com)
    Artist/Band: KORN
    Song: Big Black Kock (B.B.K.)
    
    Okay everybody as you guys know,
    Fieldy tunes his Bass down 1 whole step.
    
    Low to high: A D G C F
    
    When the band enters:
    F|--|----------------------------|x3   F|--------------------------|
    C|--|----------------------------|     C|--------------------------|
    G|--|----------------------------|     G|--------------------------|
    D|--|----------------------------|     D|--------------------------|
    A|1^|-x-x-x-x-0--x-x-x-x-0--x-x-0|     A|-x-x-x-x-0--x-x-x-x-0--1^-|
    
    1st Verse:
    F|--------------------------|x8   F|----------------------------|x3   F|--------------------------|
    C|--------------------------|     C|----------------------------|     C|--------------------------|
    G|--------------------------|     G|----------------------------|     G|--------------------------|
    D|--------------------------|     D|----------------------------|     D|--------------------------|
    A|-x-x-x-x-x-x-x-x-x-x-x-0--|     A|-x-x-x-x-0--x-x-x-x-0--x-x-0|     A|-x-x-x-x-0--x-x-x-x-0--1^-|
    
    2nd Verse:
    F|--------------------------|x8
    C|--------------------------|
    G|--------------------------|
    D|--------------------------|
    A|-x-x-x-x-x-x-x-x-x-x-x-0--|
    
    Chorus:
    F|----------------------|x8
    C|----------------------|
    G|----------------------|
    D|---------1------1-1-2-|
    A|-0-0-0-0---0--0-------|
    
    3rd Verse:
    F|----------------------|--------------------|x4
    C|----------------------|--------------------|
    G|----------------------|------15------------|
    D|----------------------|---14-----14-------|
    A|-0-----0--12-------12-|--------------0H1/--|
    
    Chorus
    Bridge (you may rest your fingers)
    
    Interlude:
    F|----------------------------|x4 F|-------|x4
    C|----------------------------|   C|-------|
    G|----------------------------|   G|-------|
    D|---------1--------1---------|   D|-----7-|
    A|-0-0-0-0---0--0-0---(0)-(0)-|   A|-----0-|
    
    Drums x4
    
    F|----------------------------|x8
    C|----------------------------|
    G|----------------------------|
    D|----------------------------|
    A|-x-x-x-x-0--x-x-x-x-0--x-x-0|     
    
    Chorus
    F|---------------------|--------------|x8
    C|---------------------|--------------|
    G|---------------------|--------------|
    D|-----2/7----6--------|--6-6-6------|
    A|-0-------------------|---------1--1-|
    
    Outro:
    F|-------|x3
    C|-------|
    G|-------|
    D|-----7-|
    A|-----0-|
    
    Ok now have fun with it...oh oh almost forgot the verses and 
    choruses are slapped.
     

    Тональность:

    Нет текста!



    Назад
    Рекомендуем посмотреть другие песни исполнителя «Korn»:

    • Комментарии Facebook ()
    • Комментарии ВКонтакте



    Добавить в Избранное Браузера
    Сохранить здесь Очистить


    x

    0


    +
    -

    +
    -

    -

    Авторизация





    Зарегистрироваться

    M

    Дата и время

    • 01:23:28
       

    Социальные ссылки


    Наши приложения

    • Muzbank App Play Market
    • Muzbank Amazon App