MUZBANK



A Most Complete Bank Of Music Information

МУЗЫКАЛЬНО-ИНФОРМАЦИОННЫЙ БАНК

Поиск по сайту







    KKorn • Earache My Eye (аккорды и текст - chords & lyrics)


    199

    Print

    Видео «Earache My Eye (Korn)»

    Видео клипы к песне подбираются автоматически сайтом youtube. Возможны некоторые несоответствия клипов песне.

    ↑ Спрятать рекламу ↑



    Download


     
    
    
    Earache My Eye-Korn
    Follow The Leader
    
    Transcribed By: Jephthah Rae
    Email: jeffrae@knet.ca
    
    7 String
    A D G C F A D
    
    Voices approx. 1:30
    
    Intro:
    
    gtr. 2
    
    d------------------------------------------------------
    a---------------------15---15-14-13--15-14-13-18-18-15-
    f---------------------18---18-17-16--18-17-16-21-21-18-
    c------------------------------------------------------
    g------------------------------------------------------
    d------------------------------------------------------
    a------------------------------------------------------
    
    gtr. 1
    
    d------------------------------------------------------
    a------------------------------------------------------
    f-----------------4-4------------------------4-4-------
    c-5-4-3---5-4-3---2-2---5----5-4-3---5-4-3---2-2---5---
    g-4-3-2---4-3-2---------4----4-3-2---4-3-2---------4---
    d------------------------------------------------------
    a------------------------------------------------------
    
    gtr. 2
    
    d------------------------------------------------------
    a-15-14-13-15-14-13-18-18-15--15-14-13-18-14-13-18-18--
    f-18-17-16-18-17-16-21-21-18--18-17-16-18-17-16-21-21--
    c------------------------------------------------------
    g------------------------------------------------------
    d------------------------------------------------------
    a------------------------------------------------------
    
    gtr. 1
    
    d------------------------------------------------------
    a------------------------------------------------------
    f-----------------4-4------------------------4--4------
    c-5-4-3---5-4-3---2-2---5----5-4-3---5-4-3---2--2------
    g-4-3-2---4-3-2---------4----4-3-2---4-3-2-------------
    d------------------------------------------------------
    a------------------------------------------------------
    
    Fig. 1
    
    d------------------------------------------------------
    a------------------------------------------------------
    f------------------------------------------------------
    c------------------------------------------------------
    g-----------------2--2-----------------------2--2------ x4
    d-4-3-2---4-3-2---0--0--4----4-3-2---4-3-2---0--0--4---
    a-2-1-0---2-1-0---------2----2-1-0---2-1-0---------2---
    
    w/ octaver doubles an octave lower
    
    d-----------------------------------------------------------13----
    a-1312-x-x-----------1211---------------------------------17----
    f-1615-x-x-1211-x-x-1514-x-x-1110-x-x-10/11-12--12------------
    c-----------1615-x-x-----------1514-x-x-14/15-16--16------------
    g-----------------------------------------------------------------
    d-----------------------------------------------------------------
    a-----------------------------------------------------------------
    
    Verses:
    
    Fig. 2
    
    x4
    d-----------------------------------------------------------------
    a-----------------------------------------------------------------
    f-----------------------------------------------------------------
    c-----------------2--2--5-----------------------------------------
    g-4-3-2---4-3-2---2--2--4-----------------------------------------
    d-4-3-2---4-3-2---0--0--4-----------------------------------------
    a-2-1-0---2-1-0---------2-----------------------------------------
    
    play 3rd n 4th times
    
    d-----------------------------------------------------------------
    a-----------------------------------------------------------------
    f-----------------------------------------------------------------
    c-----------------6--6--------------------------------------------
    g-7-6-5---7-6-5---------7-----------------------------------------
    d-----------------------------------------------------------------
    a-----------------------------------------------------------------
    
    Guitar Solo: (trem pick)
    
    d-----------------------------------------------------------------
    a--9--------10------9-------15-------9-------10--------9----15----
    f-12--------13-----12-------18------12-------13-------12----18----
    c-----------------------------------------------------------------
    g-----------------------------------------------------------------
    d-----------------------------------------------------------------
    a-----------------------------------------------------------------
    
    Outro: play guitar solo a few times with random whammy pedal, then
    
    Freely
    
    gtr. 1 w/ whammy pedal
    
    d-----------------------------------------------------------------
    a--9---------10-----9------------10-----------9-------10----------
    f-12---------13----12------------13----------12-------13----------
    c-----------------------------------------------------------------
    g-----------------------------------------------------------------
    d-----------------------------------------------------------------
    a-----------------------------------------------------------------
    
    gtr. 2
    
    d-----------------------------------------------------------------
    a-----------------------------------------------------------------
    f-----------------------------------------------------------------
    c-----------------------------------------------------------------
    g-----------------------------------------------------------------
    d--------------0----------------------0---------------------------
    a-2-1-0---2-----------0-2-2-0-0-2-2-2---0-0-2---2-2-2-------------
    
    whammy solo
    
    d-----------------------------------------------------------------
    a-----------------------------------------------------------------
    f------------------------------9--9--9br------------------------9-
    c-12-11-11-11p10p9-12-11p10p9-------11br---12-11-9-11-10-9-----11-
    g-----------------------------------------------------------------
    d-----------------------------------------------------------------
    a-----------------------------------------------------------------
     

    Тональность:

    Нет текста!



    Назад
    Рекомендуем посмотреть другие песни исполнителя «Korn»:

    • Комментарии Facebook ()
    • Комментарии ВКонтакте



    Добавить в Избранное Браузера
    Сохранить здесь Очистить


    x

    0


    +
    -

    +
    -

    -

    Авторизация





    Зарегистрироваться

    M

    Дата и время

    • 23:16:00
       

    Социальные ссылки


    Наши приложения

    • Muzbank App Play Market
    • Muzbank Amazon App