MUZBANK



A Most Complete Bank Of Music Information

МУЗЫКАЛЬНО-ИНФОРМАЦИОННЫЙ БАНК

Поиск по сайту







    KKorn • Falling Away From Me (ver 9) (аккорды и текст - chords & lyrics)


    366

    Print

    Видео «Falling Away From Me (ver 9) (Korn)»

    Видео клипы к песне подбираются автоматически сайтом youtube. Возможны некоторые несоответствия клипов песне.

    ↑ Спрятать рекламу ↑



    Download


     
    
    
    band-korn
    song-falling away from me
    
    
    Intro & Refrain:
    
    d|----15-14--------14--|----15-14--------14-------|
    a|--17------15---------|-17--------15--------14---|
    F|--------------16-----|--------------16----------|
    C|---------------------|--------------------------|	(Guitar2)
    G|---------------------|--------------------------|
    D|---------------------|--------------------------|
    A|---------------------|--------------------------|
    
    Verse:(Guitar1 & Guitar2)
    
    d|------------------------|
    a|------------------------|
    F|------------------------|
    C|------------------------|
    G|---14-----14-----14-----|
    D|---14-----14-----14-----|
    A|-0-13-0---13-0-0-13-0-0-|
    
    Refrain:
    
    d|----15-14--------14----|----15-14--------14--------|
    a|--17------15-----------|-17--------15--------14----|
    F|--------------16-------|--------------16-----------|
    C|-----------------------|---------------------------|	(Guitar2)
    G|-----------------------|---------------------------|
    D|-----------------------|---------------------------|
    A|-----------------------|---------------------------|
    
    d|-----------------------|----------------------------|
    a|-------------------11%-|-------------------------11%|
    F|-----------------------|----------------------------|
    C|-----------------------|----------------------------|	(Guitar1)
    G|-----------------------|----------------------------|	Volume pedal
    D|-----------------------|----------------------------|
    A|-----------------------|----------------------------|
    
    Verse:(Guitar1 & Guitar2)
    
    d|------------------------|
    a|------------------------|
    F|------------------------|
    C|------------------------|
    G|---14-----14-----14-----|
    D|---14-----14-----14-----|
    A|-0-13-0---13-0-0-13-0-0-|
    
    Refrain:
    
    d|----15-14--------14----|----15-14--------14--------|
    a|--17------15-----------|-17--------15--------14----|
    F|--------------16-------|--------------16-----------|
    C|-----------------------|---------------------------|	(Guitar2)
    G|-----------------------|---------------------------|
    D|-----------------------|---------------------------|
    A|-----------------------|---------------------------|
    
    d|-----------------------|----------------------------|
    a|-------------------11%-|-------------------------11%|
    F|-----------------------|----------------------------|
    C|-----------------------|----------------------------|	(Guitar1)
    G|-----------------------|----------------------------|	Volume pedal
    D|-----------------------|----------------------------|
    A|-----------------------|----------------------------|
    
    Chorus:
    
    d|--------------|--------------|
    a|--------------|--------------|
    F|--------------|--------------|
    C|-----4--------|-----4-----5--|	(Guitar1)
    G|--2--4--5--4--|--2--4--5--5--|
    D|--2--2--5--4--|--2--2--5--3--|
    A|--0-----3--2--|--0-----3-----|
    
    d|--0--0--0--0--|--0--0--0--0--|
    a|--0--0--0--0--|--0--0--0--0--|
    F|--3^-3--3^-3--|--3^-3--3^-3--|	(Guitar2)
    C|--------------|--------------|
    G|--------------|--------------|
    D|--------------|--------------|
    A|--------------|--------------|
    
    Refrain:
    
    d|----15-14--------14----|----15-14--------14--------|
    a|--17------15-----------|-17--------15--------14----|
    F|--------------16-------|--------------16-----------|
    C|-----------------------|---------------------------|	(Guitar2)
    G|-----------------------|---------------------------|
    D|-----------------------|---------------------------|
    A|-----------------------|---------------------------|
    
    d|-----------------------|----------------------------|
    a|-------------------11%-|-------------------------11%|
    F|-----------------------|----------------------------|
    C|-----------------------|----------------------------|	(Guitar1)
    G|-----------------------|----------------------------|	Volume pedal
    D|-----------------------|----------------------------|
    A|-----------------------|----------------------------|
    
    Chorus:
    
    d|--------------|--------------|
    a|--------------|--------------|
    F|--------------|--------------|
    C|-----4--------|-----4-----5--|	(Guitar1)
    G|--2--4--5--4--|--2--4--5--5--|
    D|--2--2--5--4--|--2--2--5--3--|
    A|--0-----3--2--|--0-----3-----|
    
    d|--0--0--0--0--|--0--0--0--0--|
    a|--0--0--0--0--|--0--0--0--0--|
    F|--3^-3--3^-3--|--3^-3--3^-3--|	(Guitar2)
    C|--------------|--------------|
    G|--------------|--------------|
    D|--------------|--------------|
    A|--------------|--------------|
    
    Bridge:
    
    ^= bend and keep bent until *   
        ^            *                   ^              *          
    d|-0----0-0-0-----0-0-0-0--0-----0--0--0--0--0-----0---0----|
    a|-0----0-0-0-----0-0-0-0--0-----0--0--0--0--0-----0---0----|
    F|-3----3-3-3-----3-3-3-3--3-----3--3--3--3--3-----3---3----|	(Guitar2)
    C|----------------------------------------------------------|
    G|----------------------------------------------------------|
    D|----------------------------------------------------------|
    A|----------------------------------------------------------|
    
    d|-2--2--2---2---2-2-2---2--0--0---0---0---0-|
    a|-0--2--3---5---3-2-3---0--2--0---0---0---8-|
    F|-4--4--2---1---2-2-0---4--3--2---0---0---9-|	(Guitar1)
    C|-------------------------------------------|
    G|-------------------------------------------|
    D|-------------------------------------------|
    A|-------------------------------------------|
    
    Refrain:
    
    d|----15-14--------14----|----15-14--------14--------|
    a|--17------15-----------|-17--------15--------14----|
    F|--------------16-------|--------------16-----------|
    C|-----------------------|---------------------------|	(Guitar2)
    G|-----------------------|---------------------------|
    D|-----------------------|---------------------------|
    A|-----------------------|---------------------------|
    
    d|--0--0--0--0--|--0--0--0--0--|
    a|--0--0--0--0--|--0--0--0--0--|
    F|--3^-3--3^-3--|--3^-3--3^-3--|	(Guitar1)
    C|--------------|--------------|
    G|--------------|--------------|
    D|--------------|--------------|
    A|--------------|--------------|
    
    Verse:(Guitar1 & Guitar2)
    
    d|------------------------|
    a|------------------------|
    F|------------------------|
    C|------------------------|
    G|---14-----14-----14-----|
    D|---14-----14-----14-----|
    A|-0-13-0---13-0-0-13-0-0-|
    
    
    Chorus:
    
    d|--------------|--------------|
    a|--------------|--------------|
    F|--------------|--------------|
    C|-----4--------|-----4-----5--|	(Guitar1)
    G|--2--4--5--4--|--2--4--5--5--|
    D|--2--2--5--4--|--2--2--5--3--|
    A|--0-----3--2--|--0-----3-----|
    
    d|--0--0--0--0--|--0--0--0--0--|
    a|--0--0--0--0--|--0--0--0--0--|
    F|--3^-3--3^-3--|--3^-3--3^-3--|	(Guitar2)
    C|--------------|--------------|
    G|--------------|--------------|
    D|--------------|--------------|
    A|--------------|--------------|
     

    Тональность:

    Нет текста!



    Назад
    Рекомендуем посмотреть другие песни исполнителя «Korn»:

    • Комментарии Facebook ()
    • Комментарии ВКонтакте



    Добавить в Избранное Браузера
    Сохранить здесь Очистить


    x

    0


    +
    -

    +
    -

    -

    Авторизация





    Зарегистрироваться

    M

    Дата и время

    • 20:50:34
       

    Социальные ссылки


    Наши приложения

    • Muzbank App Play Market
    • Muzbank Amazon App