MUZBANK



A MOST COMPLETE BANK OF MUSIC INFORMATION

МУЗЫКАЛЬНО-ИНФОРМАЦИОННЫЙ БАНК







    KKorn • Here To Stay (ver 8) (аккорды и текст - chords & lyrics)


    279

    Print

    Видео «Here To Stay (ver 8) (Korn)»

    Видео клипы к песне подбираются автоматически сайтом youtube. Возможны некоторые несоответствия клипов песне.

    ↑ Спрятать рекламу ↑





     
    
    
    title: Here to stay
    band: korn
    album: untouchables
    
    tabbed by downkast(ors_kar@hotmail.com)
    
    This is usually played on a seven string but this is how it is played
    on a six string. this is most of the song e-mail me if there are parts missing
    
    Her to stay
    Tuning: DGCFAD (Drop all strings by a tone)
    
    INTRO
    ------------------
    ------------------
    ------------------
    -0-2-3-3--22-00-5-
    -0-2-3-3--22-00-5-
    -0-2-3-3--22-00-5-
    
    VERSE
    -----------------
    -----------------
    -0-2-3-3--22-00-3
    -0-2-3-3--22-00-3
    -0-2-3-3--22-00-3
    -----------------
    
    PRECHORUS
    -------------------
    -------------------
    -------------------
    -5--2-3--5-4-2-3-1-
    -5--2-3--5-4-2-3-1-
    -5--2-3--5-4-2-3-1-
    
    CHORUS
    Guitar 1                  
    ----------------         
    ----------------         
    ----------------          
    -5--3--9-5--7-3-          
    -5--3--9-5--7-3-          
    -5--3--9-5--7-3-  
    
    Guitar 2
     |        tremolo picking       |
    -12-10-14-15-17--12-10-11-9-10-7-
    -12-10-14-15-17--12-10-11-9-10-7-
    ---------------------------------
    ---------------------------------
    ---------------------------------
    ---------------------------------
     

    Тональность:

    Это должно быть в ТОП-листе! - Топ-лист композиций



    Назад
    Рекомендуем посмотреть другие песни исполнителя «Korn»:

    • Комменты Fb ()
    • Комменты ВК



    Добавить в Избранное Браузера
    Сохранить здесь Очистить


    x

    0


    +
    -

    +
    -

    -

    Авторизация





    Зарегистрироваться

    M

    Дата и время

    • 17:43:13
       

    Социальные ссылки


    Наши приложения

    • Muzbank App Play Market
    • Muzbank Amazon App