MUZBANK



A Most Complete Bank Of Music Information

МУЗЫКАЛЬНО-ИНФОРМАЦИОННЫЙ БАНК

Поиск по сайту







    KKorn • Josh (аккорды и текст - chords & lyrics)


    223

    Print

    Видео «Josh (Korn)»

    Видео клипы к песне подбираются автоматически сайтом youtube. Возможны некоторые несоответствия клипов песне.

    ↑ Спрятать рекламу ↑



    Download


     
    
    
    group: Korn
    name: Josh
    song: Blind
    
    INTRO Guitar 1 (Flanger/Distortion)
     (4e&a)
    e-4444
    B-3333
    G-3333
    D-0000
    A-----
    D-----
    
    2ND TINRO Guitar Two(Distortion)
    
    e--------
    B--------
    G--------
    D---4---5
    A-2-4-2-5
    D-2---2--
    
    Then.........
    e----------------
    B----------------
    G----------------
    D----------------
    A----------------
    D-0-2-0-3-0-2-0-3
    
    Riff 2 guitar 1 (distortion)
    e----------
    B----------
    G----------
    D-0-------1
    A-0-------1
    D-0-------1Riff 1 (distortion)
    e---------------------
    B---------------------
    G---------------------
    D-0-2-0-3-0-2-0-3/5555
    A-0-2-0-3-0-2-0-3/5555
    D-0-2-0-3-0-2-0-3/5555
    
    e--------------------
    B--------------------
    G--------------------
    D-0000-3-0-2-0-3/5555
    A-0000-3-0-2-0-3/5555
    D-0000-3-0-2-0-3/5555
    
    Riff 2 guitar 2 (flanger/chorus)
    e-----------------
    B12---------------
    G-x---------------
    D-9*------------9*
    A-----------------
    D-----------------
    
    Riff 3 Guitar 1 (Distortion)
    e-------------------
    B-------------------
    G-------------------
    D-------------------
    A----2-01/2-00-1-0/5
    D0-- 2-01/2-00-1-0/5
     ^
     l-------some how this open he puts flanger in there
    
    Chorus Guitar 2 (flanger/distortion)
                  (4e&a)
    e-4-0*---------4444
    B-3-0*---------3333
    G-3-0*---------3333
    D-0-0*---------0000
    A------------------
    D------------------
    
    Riff 4 Guitar 1 (distortion)
    e---------------------
    B---------------------
    G---------------------
    D-0-2-0-3-0-2-0-3/5555
    A-0-2-0-3-0-2-0-3/5555
    D-0-2-0-3-0-2-0-3/5555
    
    e--------------------
    B--------------------
    G--------------------
    D-0000-3-0-2-0-3/5555
    A-0000-3-0-2-0-3/5555
    D-0000-3-0-2-0-3/5555
    
    (((((((((((((BASS)))))))))))))))
    
    Outro (distortion/flanger)
    e--xxxx-21^--------21^---17/9
    B--xxxx------------------17/9
    G----------------------------
    D----------------------------
    A----------------------------
    D----------------------------
    
    Thanks- Have lots more guitar tabs if you need any of them i can tabb hem for you just e-Mail me at Ibanez423@aol.com (or) FabTone_23@aol.com
     

    Тональность:

    Нет текста!



    Назад
    Рекомендуем посмотреть другие песни исполнителя «Korn»:

    • Комментарии Facebook ()
    • Комментарии ВКонтакте



    Добавить в Избранное Браузера
    Сохранить здесь Очистить


    x

    0


    +
    -

    +
    -

    -

    Авторизация





    Зарегистрироваться

    M

    Дата и время

    • 22:46:42
       

    Социальные ссылки


    Наши приложения

    • Muzbank App Play Market
    • Muzbank Amazon App