MUZBANK



A Most Complete Bank Of Music Information

МУЗЫКАЛЬНО-ИНФОРМАЦИОННЫЙ БАНК

Поиск по сайту







    KKorn • One More Time (аккорды и текст - chords & lyrics)


    229

    Print

    Видео «One More Time (Korn)»

    Видео клипы к песне подбираются автоматически сайтом youtube. Возможны некоторые несоответствия клипов песне.

    ↑ Спрятать рекламу ↑



    Download


     
    
    
    Korn - One More Time
    Tabbed By: Fieldy
    Untouchables
    
    
    Tuning: 1 Step Down (A,D,G,C,F,A,D)
    
    INTRO: (guitar 1)
    |-----------------|
    |-----------------|
    |-----------------|
    |-0-0-0-0-0-0-0-0-|
    |-----------------|
    |-----------------|
    |-----------------|
    
    INTRO: (guitar 2)
    VERSE: (guitar 2)
    |--------17-17-16-16-16-----|
    |-/15-15----------------16-|
    |---------------------------|
    |---------------------------|
    |---------------------------|
    |---------------------------|
    |---------------------------|
    
    INTRO FILL: (guitar 2)
    VERSE FILL: (guitar 2)
    |--------17-17-16-|
    |-/15-15----------|
    |-----------------|
    |-----------------|
    |-----------------|
    |-----------------|
    |-----------------|
    
    VERSE: (guitar 1)
    |----------------|
    |----------------|
    |----------------|
    |-------3--------|
    |----------------|
    |----------------|
    |-3-3-3----1-3-1-|
    pm. . .    . . .
    
    BRIDGE:
    |----------|
    |----------|
    |----------|
    |----3-----|
    |----------|
    |-5---5--6-|
    |-3---3--4-|
    
    CHORUS: (guitar 1)
    |---------------------------|
    |---------------------------|
    |---------------------------|
    |---------------------------|
    |-5--3--10--8--5--3--10--11-|
    |-5--3--10--8--5--3--10--11-|
    |-3--1---8--6--3--1---8---9-|
    
    CHORUS: (guitar 2)
    |-----------|    |-------------|
    |-----------|    |-------------|
    |-8-8-8---7-|play|-8-8-8---7-5-|
    |-X-X-X---X-| 3X |-X-X-X---X-X-|
    |-6-6-6---5-|then|-6-6-6---5-3-|
    |-----------|    |-------------|
    |-------3---|    |-------3-----|
    
    INTERLUDE:
    |----------------------------|
    |----0-----0--0---0-----0--0-|
    |----0-----0--0---0-----0--0-|
    |----------------------------|
    |-7----7-7------6---6-6------|
    |-7----7-7------6---6-6------|
    |-5----5-5------4---4-4------|
    
    INTERLUDE 2: (guitar 1)
    |---0-2--0-2---0-3--0-3---0-5--0-5---0-7--0-7-|
    |---------------------------------------------|
    |---------------------------------------------|
    |---------------------------------------------|
    |-2----------3----------5----------7----------|
    |---------------------------------------------|
    |---------------------------------------------|
    
    INTERLUDE 2: (guitar 2) (w/ effect)
    |------------|
    |------------|
    |------------|
    |------------|
    |------------|
    |-7----------|
    |----1--3--5-|
    
    INTERLUDE 2: (guitar 3)
    |-------17-----------17----|
    |----13--------------------|
    |-16--------16-17-14----16-|
    |--------------------------|
    |--------------------------|
    |--------------------------|
    |--------------------------|
     

    Тональность:

    Нет текста!



    Назад
    Рекомендуем посмотреть другие песни исполнителя «Korn»:

    • Комментарии Facebook ()
    • Комментарии ВКонтакте



    Добавить в Избранное Браузера
    Сохранить здесь Очистить


    x

    0


    +
    -

    +
    -

    -

    Авторизация





    Зарегистрироваться

    M

    Дата и время

    • 15:00:20
       

    Социальные ссылки


    Наши приложения

    • Muzbank App Play Market
    • Muzbank Amazon App