MUZBANK



A MOST COMPLETE BANK OF MUSIC INFORMATION

МУЗЫКАЛЬНО-ИНФОРМАЦИОННЫЙ БАНК







    KKorn • Pretty (аккорды и текст - chords & lyrics)


    252

    Print

    Видео «Pretty (Korn)»

    Видео клипы к песне подбираются автоматически сайтом youtube. Возможны некоторые несоответствия клипов песне.

    ↑ Спрятать рекламу ↑





     
    
    
    WWW.EXTREMETABS.COM
    
              URL: www.extremetabs.com
    	EMAIL: extremetabsdotcom@hotmail.com
    
    	     SONG: Pretty
    	     BAND: Korn
    	    ALBUM: Follow The Leader
       TRANSCRIBED BY: Nick Di Claudio
    	     DATE: Unknown
    
    	TUNING: tune your guitar down one full step (A,D,G,C,F,A,D)
    
    
         INTRO/BRIDGE RIFF:
    
        D|------------|
        A|------------|
        F|------------|   
        C|--8--8-8-8--|   
        G|--9--9-9-9--|
        D|--9--9-9-9--|
        A|--7--7-7-7--|
    
         RIFF 2:
    
        D|------------------------|
        A|------------------------|
        F|------------------------|
        C|------------------------|
        G|-------9-7--------9-10--|
        D|-----9----------9-------|
        A|--7-7-------7-7---------|
    
         RIFF 3:
    
        D|------------|
        A|------------|
        F|------------|
        C|-2--4-------|
        G|-2--4--5-3--|
        D|-0--2--5-3--|
        A|-------3-1--|
     

    Тональность:

    Это должно быть в ТОП-листе! - Топ-лист композиций



    Назад
    Рекомендуем посмотреть другие песни исполнителя «Korn»:

    • Комменты Fb ()
    • Комменты ВК



    Добавить в Избранное Браузера
    Сохранить здесь Очистить


    x

    0


    +
    -

    +
    -

    -

    Авторизация





    Зарегистрироваться

    M

    Дата и время

    • 07:20:12
       

    Социальные ссылки


    Наши приложения

    • Muzbank App Play Market
    • Muzbank Amazon App