MUZBANK



A Most Complete Bank Of Music Information

МУЗЫКАЛЬНО-ИНФОРМАЦИОННЫЙ БАНК

Поиск по сайту







    KKorn • Proud (аккорды и текст - chords & lyrics)


    226

    Print

    Видео «Proud (Korn)»

    Видео клипы к песне подбираются автоматически сайтом youtube. Возможны некоторые несоответствия клипов песне.

    ↑ Спрятать рекламу ↑



    Download


     
    
    
    Downloaded from WWW.KORNWEB.COM
    
    Proud - Bass Tab
    1 Transcriptions
    
    --------------------------------------------------------------
    
    Transcribed By: Exodus Garcia exodus@hiline.net
    
    NOTE: 5-string bass tuned down one whole step.
    
    VERSE
    F||-------------------------------------------||
    C||-------------------------------------------||    strum with
    G||-------------------------------------------||    your finger
    D||-------------------------------------------||    as well.
    A||--0h2---0h2---0h2---0h2---0h2-----h3---h3--||
    
    FILL 1
    F||-------------||
    C||-------------||
    G||-------------||
    D||-------------||
    A||--5---7---4--||
    
    CHORUS
    F||-----------------||
    C||-----------------||
    G||-----------------||
    D||-----------------||
    A||--6---5/3---4/1--||
    
    FILL 2
    F||-------------||
    C||-------------||
    G||-------------||
    D||-------------||
    A||--3---5---7--||
    
    VERSE
    F||-------------------------------------------||
    C||-------------------------------------------||    strum with
    G||-------------------------------------------||    your finger
    D||-------------------------------------------||    as well.
    A||--0h2---0h2---0h2---0h2---0h2-----h3---h3--||
    
    CHORUS
    F||-------------------||
    C||-------------------||
    G||-------------------||
    D||-------------------||
    A||---6---5/3---4/1---||
    
    BRIDGE
    F||-------------------||
    C||-------------------||    On this part just bang
    G||-------------------||    the shit out of the 
    D||-------------------||    string and strum with
    A||---2h---4h---5h----||    your finger as well.
    
    VERSE
    F||-------------------------------------------||
    C||-------------------------------------------||    strum with
    G||-------------------------------------------||    your finger
    D||-------------------------------------------||    as well.
    A||--0h2---0h2---0h2---0h2---0h2-----h3---h3--||
    
    CHORUS
    F||-----------------||
    C||-----------------||
    G||-----------------||
    D||-----------------||
    A||--6---5/3---4/1--||
    
    OUTRO
    F||------------------------------------||
    C||------------------------------------||
    G||------------------------------------||
    D||------------------------------------||
    A||---6/45---6/5/4---6/4---6------7---||
     

    Тональность:

    Нет текста!



    Назад
    Рекомендуем посмотреть другие песни исполнителя «Korn»:

    • Комментарии Facebook ()
    • Комментарии ВКонтакте



    Добавить в Избранное Браузера
    Сохранить здесь Очистить


    x

    0


    +
    -

    +
    -

    -

    Авторизация





    Зарегистрироваться

    M

    Дата и время

    • 23:37:42
       

    Социальные ссылки


    Наши приложения

    • Muzbank App Play Market
    • Muzbank Amazon App