MUZBANK



A Most Complete Bank Of Music Information

МУЗЫКАЛЬНО-ИНФОРМАЦИОННЫЙ БАНК

Поиск по сайту







    KKorn • The Christmas Song (аккорды и текст - chords & lyrics)


    228

    Print

    Видео «The Christmas Song (Korn)»

    Видео клипы к песне подбираются автоматически сайтом youtube. Возможны некоторые несоответствия клипов песне.

    ↑ Спрятать рекламу ↑



    Download


     
    
    
    KoRn The Christmas Song
    
    NOTE: 7-string guitar tuned down one whole step.
    
    Most of this guitar portions of this song are just add-libs,
    so it was a little difficult to determine what was being played.
    
    (...and all thru the house)
    d||-----------||
    a||-----------||
    F||--9--8-----||
    C||--------6--||
    G||-----------||
    D||-----------||
    A||-----------||
    
    
    (When all of a sudden...)
    d||--------------||
    a||-----------9--||
    F||-------9------||
    C||--7-----------||
    G||--------------||
    D||--------------||
    A||--------------||
    
    
    (...such a clatter)
    d||------------||
    a||--8---------||
    F||---------8--||
    C||------------||
    G||------------||
    D||------------||
    A||------------||
    
    
    (...and busted my bladder)
    d||------------------------------------------------------------------||
    a||------------------------------------------------------------------||
    E||--10--9--8--7--6--10--9--8--9--6--10--9--8--7--6--10--9--8--9--6--||
    C||------------------------------------------------------------------||
    G||------------------------------------------------------------------||
    D||------------------------------------------------------------------||
    A||------------------------------------------------------------------||
    
    
    (...for the family queer)
    d||------------||
    a||--21--------||
    F||--------22--||
    C||------------||
    G||------------||
    D||------------||
    A||------------||
    
    
    (Punk rock gibberish part)
    d||-------------------||
    a||-------------------||
    F||-------------------||
    C||-------------------||
    G||--5-5-5-5-6-66-66--||
    D||--5-5-5-5-6-66-66--||
    A||--3-3-3-3-4-44-44--||
     

    Тональность:

    Нет текста!



    Назад
    Рекомендуем посмотреть другие песни исполнителя «Korn»:

    • Комментарии Facebook ()
    • Комментарии ВКонтакте



    Добавить в Избранное Браузера
    Сохранить здесь Очистить


    x

    0


    +
    -

    +
    -

    -

    Авторизация





    Зарегистрироваться

    M

    Дата и время

    • 11:14:18
       

    Социальные ссылки


    Наши приложения

    • Muzbank App Play Market
    • Muzbank Amazon App