MUZBANK



A Most Complete Bank Of Music Information

МУЗЫКАЛЬНО-ИНФОРМАЦИОННЫЙ БАНК

Поиск по сайту







    ККороль и Шут • Лесник (аккорды и текст - chords & lyrics)


    285

    Print

    Видео «Лесник (Король и Шут)»

    Видео клипы к песне подбираются автоматически сайтом youtube. Возможны некоторые несоответствия клипов песне.

    ↑ Спрятать рекламу ↑



    Download



     
    
    
    Am   Dm    G    F    A5   D5   G5   F5   E5
    |-5-||-5-||-3-||-1-| |---||---||---||---||---|             
    |-5-||-6-||-3-||-1-| |---||---||---||---||---|                       
    |-5-||-7-||-4-||-2-| |---||-7-||---||---||-9-|                       
    |-7-||-7-||-5-||-3-| |-7-||-7-||-5-||-3-||-9-|                        
    |-7-||-5-||-5-||-3-| |-7-||-5-||-5-||-3-||-7-|                       
    |-5-||-5-||-3-||-1-| |-5-||---||-3-||-1-||---|                       
                       
    Вступление: 
     Am                        F   
     Gtr.1(elec) 
    p.m. ................................................
    |-------------------------|-------------------------|
    |-------------------------|-------88-66-------88-66-|
    |----55-77-99----55-77-99-|----55----------55-------|
    |-77----------77----------|-77----------77----------|
    |-------------------------|-------------------------|
    |-------------------------|-------------------------| 
    | Gtr.2(acous)                                      |
    |-5-----------------------|-1-----------------------|
    |-5-----------------------|-1-----------------------|
    |-5-----------------------|-2-----------------------|
    |-7-----------------------|-3-----------------------|
    |-7-----------------------|-3-----------------------|
    |-5-----------------------|-1-----------------------| 
    
     Dm                        G
     ...................................................
    |-------------------------|-------------------------|
    |-88-66-55----88-66-55----|-88----------88----------|
    |----------77----------77-|----44-55-77----44-55-77-|
    |-------------------------|-------------------------|
    |-------------------------|-------------------------|
    |-------------------------|-------------------------|
    |                                                   |
    |-5-----------------------|-3-----------------------|
    |-6-----------------------|-3-----------------------|
    |-7-----------------------|-4-----------------------|
    |-7-----------------------|-5-----------------------|
    |-5-----------------------|-5-----------------------|
    |-5-----------------------|-3-----------------------|
     
     Am                        F
     ...................................................
    |-------------------------|-------------------------|
    |-------------------------|-------88-66-------88-66-|
    |----55-77-99----55-77-99-|----55----------55-------|
    |-77----------77----------|-77----------77----------|
    |-------------------------|-------------------------|
    |-------------------------|-------------------------|
    |                                                   |
    |-7-----------------------|-1-----------------------|
    |-7-----------------------|-1-----------------------|
    |-7-----------------------|-2-----------------------|
    |-5-----------------------|-3-----------------------|
    |-5-----------------------|-3-----------------------|
    |-7-----------------------|-1-----------------------| 
    
     Dm                        G
     ......................................,
    |-------------------------|-------------------------|
    |-88-66-55----88-66-55----|-88----------------------|
    |----------77----------77-|----44-55-77----4-5-7----|
    |-------------------------|--------------5----------|
    |-------------------------|-------------------------|
    |-------------------------|-------------------------|
    |                                                   |
    |-5-----------------------|-3-----------------------|
    |-6-----------------------|-3-----------------------|
    |-7-----------------------|-4-----------------------|
    |-7-----------------------|-5-----------------------|
    |-5-----------------------|-5-----------------------|
    |-5-----------------------|-3-----------------------|
     
     Am                   F
    |--------------------|-----3-1-----3-1-|  (*)- в припеве так же
    |---1-3-5------1-3-5-|---1-------1-----|   паралельно играется
    |-2-------2--2-------|-2-------2-------|   это соло.
    |--------------------|-----------------|
    |--------------------|-----------------|
    |--------------------|-----------------| 
     Dm                   G 
    |--------------------|-----------------|
    |-8-6-5---8--8-6-5---|-8---------------|
    |-------7----------7-|---4-5-7---4-5-7-|
    |--------------------|---------5-------|
    |--------------------|-----------------|
    |--------------------|-----------------|
    
     A5                         F5
    |-------------------------|------3--1---------3--1--|
    |---1--3--5------1--3--5--|----1-----------1--------|
    |-2---------2--2----------|-2-----------2-----------|
    |-------------------------|-------------------------|
    |-------------------------|-------------------------|
    |-------------------------|-------------------------|
    |Gtr.2(elc)                                         |
    |-------------------------|-------------------------|
    |-------------------------|-------------------------|
    |-------------------------|-------------------------|
    |-7-----------------------|-3-----------------------|
    |-7-7-7-7-7-7-7-7-7-7-7-7-|-3-3-3-3-3-3-3-3-3-3-3-3-|
    |-5-5-5-5-5-5-5-5-5-5-5-5-|-1-1-1-1-1-1-1-1-1-1-1-1-|
     
     D5                         G5                        A5
    |-------------------------|-------------------------|----------------|
    |-8--6--5----8--8-6--5----|-8-----------------------|----------------|
    |---------7------------7--|----4--5--7-----4--5--7--|----------------|
    |-------------------------|-------------5-----------|----------------|
    |-------------------------|-------------------------|----------------|
    |-------------------------|-------------------------|----------------|
    |                                                                    |
    |-------------------------|-------------------------|----------------|
    |-------------------------|-------------------------|----------------|
    |-7-----------------------|-------------------------|----------------|
    |-7-7-7-7-7-7-7-7-7-7-7-7-|-5-----------------------|-7--------------|
    |-5-5-5-5-5-5-5-5-5-5-5-5-|-5-5-5-5-5-5-5-5-5-5-5-5-|-7--------------|
    |-------------------------|-3-3-3-3-3-3-3-3-3-3-3-3-|-5--------------|
    
     A5           F5            D5   C5 D5    E5
    |------------|------------|-------------|-----------|
    |------------|------------|-------------|-----------|
    |------------|------------|-------------|-9-x-x-x-x-| 2 раза
    |-7----------|-3----------|--7-7--5-7---|-9-x-x-x-x-|
    |-7----------|-3----------|--5-5--3-5---|-7-x-x-x-x-|
    |-5----------|-1----------|-------------|-----------|
    
         Am                     F        G
       Замученный дорогой,   я выбился   из   сил.
    |----------5----------5-----------1-----------3----|
    |----------5----------5-----------1-----------3----|
    |----------5----------5-----------2-----------4----|
    |----------7----------7-----------3-----------5----|
    |----------7----------7-----------3-----------5----|
    |----5-----5-----5----5------1----1---3-------3----| 
    
     И в доме лесника я ночлега попросил.
     С улыбкой добродушной старик меня пустил.
         A5
     И жестом дружелюбным. На ужин пригласил.
    |----------------------------------------|
    |----------------------------------------|
    |----------------------------------------|
    |----7-----------------------------------|
    |----7-----------------------------------|
    |----5-----------------------------------|
    
     Х - э - й !
         A5    A5  D5 E5
    |----------------------|
    |----------------------|
    |--------------7--9----|
    |----7------7--7--9----|
    |----7------7--5--7----|
    |----5------5----------|
    
    припев: 
    
       A5                          F5
      Будь как дома путник,я ни в чем не откажу,
              D5                   G5           G5(без p.m.)
      Я ни в чем не откажу,я ни в чем не откажу!  Х - э - й !
        A5(*)                   F5
      Множество историй,коль желаешь расскажу,   
              D5                    G5
      Коль желаешь расскажу,коль желаешь расскажу!
      
      A5             D5   G5       A5            G5   F5
    |----------------------------|---------------------------|
    |----------------------------|---------------------------|
    |----------------7-x---------|---------------------------|
    |-7--x--7---7-7--7-x--5--5---|-7--x--7--7-7--5-x--3--3---|
    |-7--x--7---7-7--5-x--5--5---|-7--x--7--7-7--5-x--3--3---|
    |-5--x--5---5-5-------3--3---|-5--x--5--5-5--3-x--1--1---|
    
    На улице темнело, 
    Сидел я за столом. 
    Лесник сидел напротив,
    Болтал о том о сем.
    Что нет среди животных 
    У старика врагов,
    Что нравится ему 
    Подкармливать волков.
    
    припев.                      
                          
    И волки среди ночи 
    Завыли под окном.
    Старик заулыбался 
    И вдруг покинул дом.
    Но вскоре возвратился 
    С ружьем на перевес:
    "Друзья хотят покушать,
    Пойдем приятель в лес!"                     
                          
    припев.  
                        
     Am                       G
    |-----------------------|-----------------------|
    |-----------------------|-----------------------|
    |-----------------------|-----------------------|
    |-----------------------|-----------------------|
    |--------9-7--------9-7-|--------7-5--------7-5-|
    |-5--5-5-----5--5-5-----|-3--3-3-----3--3-3-----|
    
     Am                       G           A5
    |-----------------------|-----------------------|
    |-----------------------|-----------------------|
    |-----------------------|-----------------------|
    |-----------------------|-------------7---------|
    |--------9-7--------9-7-|--------7-5--7---------|
    |-5--5-5-----5--5-5-----|-3--3-3------5---------|
    
    
    
    Первые две строчки каждого припева,кроме последнего,
    играются с p.m.,а дальше без него.
    В последнем припеве (*) соло-гитара вступает сразу.
     

    Тональность:

    Нет текста!



    Назад
    Рекомендуем посмотреть другие песни исполнителя «Король и Шут»:

    • Комментарии Facebook ()
    • Комментарии ВКонтакте



    Добавить в Избранное Браузера
    Сохранить здесь Очистить


    x

    0


    +
    -

    +
    -

    -

    Авторизация





    Зарегистрироваться

    M

    Дата и время

    • 06:03:51
       

    Социальные ссылки


    Наши приложения

    • Muzbank App Play Market
    • Muzbank Amazon App