MUZBANK



A Most Complete Bank Of Music Information

МУЗЫКАЛЬНО-ИНФОРМАЦИОННЫЙ БАНК

Поиск по сайту







    ККороль и Шут • Сосиска (аккорды и текст - chords & lyrics)


    210

    Print

    Видео «Сосиска (Король и Шут)»

    Видео клипы к песне подбираются автоматически сайтом youtube. Возможны некоторые несоответствия клипов песне.

    ↑ Спрятать рекламу ↑



    Download



     
    
    
    Вступление:
    
      D
    
    E ---2---2---2---2---2---2------------2---2---2---2---2---2------------                                                                      
    B ---3---3---3---3---3---3------------3---3---3---3---3---3------------                                                                            
    G ---2---2---2---2---2---2------------2---2---2---2---2---2------------                                                              
    D -0-------0-------0-------0--------0-------0-------0-------0----------                                                                     
    A -----0-------0-------0------0-2-4-----0-------0-------0------0-2-4---                                                               
    E ---------------------------------------------------------------------  
    
    Куплет:
    
      D                Hm              G       A       D
    
    E ---2---2---2---2---2---2---2---2---3---3---0---0---2---2---2---2-----                                                                      
    B ---3---3---3---3---3---3---3---3---3---3---2---2---3---3---3---3-----                                                                                 
    G ---2---2---2---2---4---4---4---4---4---4---2---2---2---2---2---2-----                   
    D -0-------0---------------------------------------0-------0-----------                                                                          
    A -----0-------0---2-------2-------5-------0-----------0-------0-------                                                                    
    E ---------------------2-------2-------3-------0-----------------------       
                                                                              
    Припев:
    
       Hm              A       Hm      G               A 
    
    E ---2---2---2---2---0---0---2---2---3---3---3---3---0---0---0---0-----
    B ---3---3---3---3---2---2---3---3---3---3---3---3---0---0---0---0-----
    G ---4---4---4---4---2---2---4---4---4---4---4---4---2---2---2---2-----
    D ---------------------------------------------------------------------
    A -2-------2-------0-------2-------5-------5-------0-------0-----------
    E -----2-------2-------0-------2-------3-------3-------0-------0-------
    
    
       Hm              A       Hm      G               A               Hm
    
    E ---2---2---2---2---0---0---2---3---3---3---3---0---0---0---0-------2---2---2---2---2-----------
    B ---3---3---3---3---2---2---3---3---3---3---3---0---0---0---0-------3---3---3---3---3-----------
    G ---4---4---4---4---2---2---4---4---4---4---4---2---2---2---2-------4---4---4---4---4-----------
    D -----------------------------------------------------------------------------------------------
    A -2-------2-------0-------2-------5-------5-------0-------0-------2-------2---------2-----2-3-4-
    E -----2-------2-------0-------2-------3-------3-------0-------0-------2-------2-----------------
    
    
    Куплет 1:
    
      D               Hm  
      Первым парнем я был во дворе,
              G       A          D    
      Всех девчонок я знал очень близко,
      Но ужасно не нравилось мне,
      Что меня называли сосиской.
    
      Я ругаться с людьми не умел
      И сосискою быть не хотелось,
      Я их даже, представьте, не ел,
      Внешних сходств никаких не имелось. 
    
    Припев:
    
          Hm                A        Hm
      Ну, зачем называют сосиской меня,
               G      A       
      Мне же стыдно и очень обидно,
           Hm               A       Hm 
      И от этого слова в душе плачу я, 
               G        G             Hm 
      Только внешне вам это не видно, йа!
    
    Куплет 2:
    
      И с девчонкой любимой своей,
      Мы расстались, увы, очень быстро,
      Потому, что сказал кто-то ей:
      "Ты, Наташка, гуляешь с сосиской!"
    
      С горя начал я всех избегать
      И шарахался я от прохожих,
      И друзей мне пришлось потерять,
      Стал я сам на себя не похожий
    
    Припев 
    
      И, конечно, меня не со зла,
      Ради шутки сосискою звали,
      Но обида мне в сердце ползла,
      Эти буквы меня убивали.
    
      Разум мой погрузился во тьму,
      В сумасшедшего я превратился,
      Стал я ночью вопить на луну
      Ну зачем я на свет появился?
    
    Припев
     

    Тональность:

    Нет текста!



    Назад
    Рекомендуем посмотреть другие песни исполнителя «Король и Шут»:

    • Комментарии Facebook ()
    • Комментарии ВКонтакте



    Добавить в Избранное Браузера
    Сохранить здесь Очистить


    x

    0


    +
    -

    +
    -

    -

    Авторизация





    Зарегистрироваться

    M

    Дата и время

    • 21:28:04
       

    Социальные ссылки


    Наши приложения

    • Muzbank App Play Market
    • Muzbank Amazon App