MUZBANK



A Most Complete Bank Of Music Information

МУЗЫКАЛЬНО-ИНФОРМАЦИОННЫЙ БАНК

Поиск по сайту







    ККороль и Шут • Воспоминания о былой любви (аккорды и текст - chords & lyrics)


    1834

    Print

    Видео «Воспоминания о былой любви (Король и Шут)»

    Видео клипы к песне подбираются автоматически сайтом youtube. Возможны некоторые несоответствия клипов песне.

    ↑ Спрятать рекламу ↑






    E|-----------------------------------------------2-3-2~~|
    H|------------------------------------------------------|
    G|--------0-2-3--0-2-3-5-3-2-0-----0-2-3-2-0------------|
    D|-0-2-4-----------------------3-3----------------------|
    A|-------------------------------------------6-5--------|
    E|------------------------------------------------------|
    
    
    Вступление:
    E|--------------------0--------------------0-2----------------
    H|----------------------0--------1-----1-3--------3-----------
    G|------------0-----------0---0------2----------2-------------
    D|--------2-4------2--------2------2---------0----------------
    A|--2-3-5--------2---------------0----------------------------
    E|------------0-----------------------------------------------
    
    
       Форшлаг
    E|---232---0--------3----------------0--------------0--------------2-------
    H|-----------3--------3--------1------1-------1-------1----------4---4--4--
    G|----------------4-----4---4------0----0---0-----2-----2--2----4------4---
    D|--------------5---------5------2--------2-----2---------2----4-----------
    A|-----------------------------3--------------0---------------2------------
    E|-----------3-------------------------------------------------------------
    
    
    E|----------------0-2-3---------3-------------------0-2-------------------
    H|----------0-1-3-------------0-------0---------1-3-------3---------------
    G|------4-------------------0-------0---------2---------2-----------------
    D|----4-------------------2-------2---------2---------0-------------------
    A|--2-------------------------------------0-------------------------------
    E|--------------------0---------------------------------------------------
    
       Форшлаг
    E|---232---0--------3-----------------------------------------------------
    H|-----------3--------3---------------------------------------------------
    G|----------------4-----4---4------0-------0-------2------0---------------
    D|--------------5---------5------2-------0-------2-------2----------------
    A|-----------------------------3-----3-2-----2-0-----0-3----3-------------
    E|-----------3------------------------------------------------------------
    
         
    E|------------2---------
    H|---------4----4-4-----
    G|-------4-------4------
    D|-----4----------------
    A|---2--------------2---
    E|---------------------- конец вступления
    
    Em             Am
      Дремлет за горой
    D               G
      Мрачный замок мой.
    C         Am
     Душу мучает порой
      H
    Царящий в нем покой.
    Для твоих фантазий
    Страждущий герой
    О любви моей живой
    Все образы со мной.
    
    
    Припев: 
      Em         Am
    Я часто вижу страх
          D          Hm    Em        
    В смотрящих на меня глазах.
    Em  Am        D           G
     Им суждено уснуть в моих стенах,
       C
    Застыть в моих мирах.
    Но сердце от любви горит,
    Моя душа болит.
    И восковых фигур прекрасен вид,
      C                H
    Покой везде царит.
    
    
    Я их приводил
    В свой прекрасный дом,
    Их вином поил,
    И развлекались мы потом.
    Иногда у них 
    Легкий был испуг
    От прикосновений
    К нежной шее крепких рук.
    
    Вот несет одна
    Мне свои цветы,
    Вот стоит другая,
    Погруженная в мечты.
    Я пытался их
    До смерти рассмешить,
    Но пришлось,
    Как в старой сказке, просто задушить.
    

    Тональность:

    Нет текста!



    Назад
    Рекомендуем посмотреть другие песни исполнителя «Король и Шут»:

    • Комментарии Facebook ()
    • Комментарии ВКонтакте



    Добавить в Избранное Браузера
    Сохранить здесь Очистить


    x

    0


    +
    -

    +
    -

    -

    Авторизация





    Зарегистрироваться

    M

    Дата и время

    • 01:25:23
       

    Социальные ссылки


    Наши приложения

    • Muzbank App Play Market
    • Muzbank Amazon App