MUZBANK



A Most Complete Bank Of Music Information

МУЗЫКАЛЬНО-ИНФОРМАЦИОННЫЙ БАНК

Поиск по сайту







    ККороль и Шут • Злодей и шапка (аккорды и текст - chords & lyrics)


    917

    Print

    Видео «Злодей и шапка (Король и Шут)»

    Видео клипы к песне подбираются автоматически сайтом youtube. Возможны некоторые несоответствия клипов песне.

    ↑ Спрятать рекламу ↑



    Download



       Hm
    E|-7-7---------10-10-| repeat
    B|-----8-8-7-7-------|
    G|-------------------|
    D|-------------------|
    A|-------------------|
    E|-------------------|
    
       Hm           (G)         Hm
    e|------------------------------|
    B|---------------------8-7------|
    G|-4--4---4--4---4-6-7------7---|
    D|------------------------------|
    A|------------------------------|
    E|------------------------------|
    
       Hm           (G)         Hm
    E|-----------------7-5-7--------|
    B|---------------7-------7--5---|
    G|-4--4---4--4------------------|
    D|------------------------------|
    A|------------------------------|
    E|------------------------------|
    
    Как-то некто на базар пришел,
    К самой первой лавке подошел:
    
       Hm
    E|-----------------|
    B|-----------------|
    G|-----------------|
    D|-----------------|
    A|-2-2---------5-5-| repeat
    E|-----3-3-2-2-----|
    
       Hm
    E|-----------------|
    B|-3---2-3---5-3-2-| repeat
    G|-----------------|
    D|-----------------|
    A|-----------------|
    E|-----------------|
    
    "Эй, продавец, ну-ка думай быстрей,
    Какую выбрать одежду мне в лавке твоей,
    Я по характеру - злой, мое стремление - власть,
    Во мне горячая кровь, во мне свирепая страсть.
    
      Hm   G         A          D
      Я хочу, чтоб, видя облик мой,
      Все меня обходили стороной,
        A          G
      Чтобы сразу понимали,
          A           C
      Кто я в душе такой".
    
    Торговец понял - дело непростое,
    Что бы это предложить такое?
    "Я б не хотел тебя, приятель, обидеть,
    Но такого, как ты, да лучше б вовсе не видеть,
    Я, кажется, знаю, что тебе подойдет,
    Твой горячий характер каждый сразу поймет".
    
      И старинный он сундук открыл,
      Вынул шапку и проговорил:
      "В свое время сам Великий
      Карл ее носил".
    
    "То, что надо", - злодей заулыбался,
    Новой шапкой очень восхищался,
    Шел он домой, воображал и гордился,
    Перед зеркалом в спальне он весь вечер крутился,
    Но, когда снял он шапку, с ним случилась беда -
    Вместе с шапкой снялась и его голова.
    
       Hm      G     A        D
    E|----------------------------|
    B|-7---7---8---8-5--5-7-5-----| 2 (раза)
    G|------------------------7---|
    D|----------------------------|
    A|----------------------------|
    E|----------------------------|
    
      "Я хочу, чтоб, видя облик мой,
      Все меня обходили стороной..."
    

    Тональность:

    Нет текста!



    Назад
    Рекомендуем посмотреть другие песни исполнителя «Король и Шут»:

    • Комментарии Facebook ()
    • Комментарии ВКонтакте



    Добавить в Избранное Браузера
    Сохранить здесь Очистить


    x

    0


    +
    -

    +
    -

    -

    Авторизация





    Зарегистрироваться

    M

    Дата и время

    • 03:08:51
       

    Социальные ссылки


    Наши приложения

    • Muzbank App Play Market
    • Muzbank Amazon App