MUZBANK



A Most Complete Bank Of Music Information

МУЗЫКАЛЬНО-ИНФОРМАЦИОННЫЙ БАНК

Поиск по сайту







    KKotiteollisuus • Meren Muta (аккорды и текст - chords & lyrics)


    246

    Print

    Видео «Meren Muta (Kotiteollisuus)»

    Видео клипы к песне подбираются автоматически сайтом youtube. Возможны некоторые несоответствия клипов песне.

    ↑ Спрятать рекламу ↑



    Download


     
    
    
    KOTITEOLLISUUS: MEREN MUTAA
    
    Vire: C#-G#-C#-F#-A#-D#
    
      ****************************************************************************
     Tabbed by plikk
      ****************************************************************************
    
    
    Intro
    |------------------------------------------|
    |------------------------------------------|
    |------------------------------------------|
    |------------------------------------------|
    |------------------------------------------|
    |--0-10-12-0-10-12-0-10-12-0-10b--0-10-12--|
    
    ...Ugh!...
    |-----------------------------------------|
    |-----------------------------------------|
    |-----------------------------------------|
    |--0-10-12-0-10-12-0-10-12-0-10--0-10-12--|
    |--0-10-12-0-10-12-0-10-12-0-10--0-10-12--|
    |--0-10-12-0-10-12-0-10-12-0-10--0-10-12--|
    
    |----------------------------------|
    |----------------------------------|
    |----------------------------------|
    |--0-2-3-0-2-3-0-----0-2-3-0-2-----|
    |--0-2-3-0-2-3-0-----0-2-3-0-2-----|
    |--0-2-3-0-2-3-0-2b--0-2-3-0-2-3b--|
    
    
    
    ...Kohmeisia taloja...
    |----------------------------------|
    |----------------------------------|
    |----------------------------------|
    |--0-2-3-0-2-3-0-----0-2-3-0-2-----|
    |--0-2-3-0-2-3-0-----0-2-3-0-2-----|
    |--0-2-3-0-2-3-0-2b--0-2-3-0-2-3b--|
       x x x x x x x     x x x x x
    
    ...Vaihdan asentoa...        1-3.       4.
    |---------------------------|----------|--------|
    |---------------------------|----------|--------|
    |---------------------------|----------|--------|
    |--0-2-3-0-2-3-0-----0-2-3--|--0-2-----|--0--2--|
    |--0-2-3-0-2-3-0-----0-2-3--|--0-2-----|--0--2--|
    |--0-2-3-0-2-3-0-2b--0-2-3--|--0-2-3b--|--0--2--|
    
    
    ...Olen kadottanut...                           1-3.                   4.
    |----------------------------------------------|----------------------|------------------------------------
    |----------------------------------------------|----------------------|------------------------------------
    |------------------5-5-5-5-5-5-5-5-------------|----------------------|------------------------------------
    |--3-3-3-3-3-3-3-3-5-5-5-5-5-5-5-5-5-5-5-5-5-5-|-5-5-7-7-7-7-7-7-7-7--|--3-3-2-2-2-2-2-2-2-2-3-3-3-3-3-3-3-
    |--3-3-3-3-3-3-3-3-3-3-3-3-3-3-3-3-5-5-5-5-5-5-|-5-5-7-7-7-7-7-7-7-7--|--3-3-2-2-2-2-2-2-2-2-3-3-3-3-3-3-3-
    |--3-3-3-3-3-3-3-3-----------------5-5-5-5-5-5-|-5-5-7-7-7-7-7-7-7-7--|--3-3-2-2-2-2-2-2-2-2-3-3-3-3-3-3-3-
     

    Тональность:

    Нет текста!



    Назад
    Рекомендуем посмотреть другие песни исполнителя «Kotiteollisuus»:

    • Комментарии Facebook ()
    • Комментарии ВКонтакте



    Добавить в Избранное Браузера
    Сохранить здесь Очистить


    x

    0


    +
    -

    +
    -

    -

    Авторизация





    Зарегистрироваться

    M

    Дата и время

    • 04:25:50
       

    Социальные ссылки


    Наши приложения

    • Muzbank App Play Market
    • Muzbank Amazon App