MUZBANK



A MOST COMPLETE BANK OF MUSIC INFORMATION

МУЗЫКАЛЬНО-ИНФОРМАЦИОННЫЙ БАНК







    KKotiteollisuus • Tuomittu (аккорды и текст - chords & lyrics)


    314

    Print

    Видео «Tuomittu (Kotiteollisuus)»

    Видео клипы к песне подбираются автоматически сайтом youtube. Возможны некоторые несоответствия клипов песне.

    ↑ Спрятать рекламу ↑



    Download


     
    
    
    KOTITEOLLISUUS: TUOMITTU
    
    Vire: C#-G#-C#-F#-A#-D#
    
      Tabbed by plikk
    
    x = dempattuna
    
    
    Alkuriffi
    |-------------------------------------------------------------------------------|
    |-------------------------------------------------------------------------------|
    |-------------------------------------------------------------------------------|
    |--10-12-12-12-12-12-12-10-10-12-12-12-12~~~3-3--3-5-5-5-5-5-5-5-5-6-6-6-6-5-3--|
    |--10-12-12-12-12-12-12-10-10-12-12-12-12~~~3-3--3-5-5-5-5-5-5-5-5-6-6-6-6-5-3--|
    |--10-12-12-12-12-12-12-10-10-12-12-12-12~~~3-3--3-5-5-5-5-5-5-5-5-6-6-6-6-5-3--|
    
    
                         1-3.               4.
    |-------------------|------------------|----------------|
    |-------------------|------------------|----------------|
    |-------------------|------------------|----------------|
    |--0-0-0-0-0---0-0--|--0-0---0-0-0-----|----------------|
    |--0-0-0-0-0---0-0--|--0-0---0-0-0-----|--5-4-0-3-2-----|
    |--0-0-0-0-0---0-0--|--0-0---0-0-0-2b--|------------3b--|
    
    
                         1-3.               4.
    |-------------------|------------------|----------------|
    |-------------------|------------------|----------------|
    |-------------------|------------------|----------------|
    |--0-0-0-0-0---0-0--|--0-0---0-0-0-----|----------------|
    |--0-0-0-0-0---0-0--|--0-0---0-0-0-----|--5-4-0-3-2-----|
    |--0-0-0-0-0---0-0--|--0-0---0-0-0-2b--|------------3---|
       x x x x x   x x     x x   x x x
    
    
    ...Ja jos jonkun...
    |-------------------------------------------------------------------|
    |-------------------------------------------------------------------|
    |-------------------------------------------------------------------|
    |--7-7-7-7-7-7-7-7-5-5-5-5-5-5-5-5-3-3-3-3-2-2-2-2-5-5-5-5-5-5-5-5--|
    |--7-7-7-7-7-7-7-7-5-5-5-5-5-5-5-5-3-3-3-3-2-2-2-2-5-5-5-5-5-5-5-5--|
    |--7-7-7-7-7-7-7-7-5-5-5-5-5-5-5-5-3-3-3-3-2-2-2-2-5-5-5-5-5-5-5-5--|
    
    
    
    Lopetus
    |-----|
    |-----|
    |-----|
    |--0--|
    |--0--|
    |--0--|
     

    Тональность:

    Нашли ошибку?



    Назад
    Рекомендуем посмотреть другие песни исполнителя «Kotiteollisuus»:

    • Комменты Fb ()
    • Комменты ВК



    Добавить в Избранное Браузера
    Сохранить здесь Очистить


    x

    0


    +
    -

    +
    -

    -

    Авторизация





    Зарегистрироваться

    M

    Дата и время

    • 04:57:17
       

    Социальные ссылки


    Наши приложения

    • Muzbank App Play Market
    • Muzbank Amazon App