MUZBANK



A Most Complete Bank Of Music Information

МУЗЫКАЛЬНО-ИНФОРМАЦИОННЫЙ БАНК

Поиск по сайту







    KKottonmouth Kings • Size Of An Ant (аккорды и текст - chords & lyrics)


    189

    Print

    Видео «Size Of An Ant (Kottonmouth Kings)»

    Видео клипы к песне подбираются автоматически сайтом youtube. Возможны некоторые несоответствия клипов песне.

    ↑ Спрятать рекламу ↑



    Download


     
    
    
    Song: Size of an Ant
    Artist: Kottonmouth Kings
    Album: High Society
    Tabbed by: Keith (OrderByChaos@yahoo.com) 
    AIM: Order By Chaos
    let me know if any of this is wrong
    
    intro
    G|-------------------
    D|-------------------
    A|-------------------
    E|-0h3--0h3-0h3-0h3--
    
    verse
    G|-------------------
    D|-----6^------------
    A|-------------------
    E|-3h4-----0h3--3-3--
    
    end verse
    G|-------------------------
    D|-----6^------------------
    A|-------------------------
    E|-3h4-----0h3-0h3-0h3-h3--
    
    chorus and ending
    G|-----------------------------------------
    D|-----------------------------------------
    A|-----------------------------------------
    E|-0h3--3-3--0h3--3-3--0h3--3-3--0h3--3-3--
     

    Тональность:

    Нет текста!



    Назад
    Рекомендуем посмотреть другие песни исполнителя «Kottonmouth Kings»:

    • Комментарии Facebook ()
    • Комментарии ВКонтакте



    Добавить в Избранное Браузера
    Сохранить здесь Очистить


    x

    0


    +
    -

    +
    -

    -

    Авторизация





    Зарегистрироваться

    M

    Дата и время

    • 22:47:25
       

    Социальные ссылки


    Наши приложения

    • Muzbank App Play Market
    • Muzbank Amazon App