MUZBANK



A Most Complete Bank Of Music Information

МУЗЫКАЛЬНО-ИНФОРМАЦИОННЫЙ БАНК

Поиск по сайту







    KKravitz Lenny • It Aint Over Till Its Over (аккорды и текст - chords & lyrics)


    249

    Print

    Видео «It Aint Over Till Its Over (Kravitz Lenny)»

    Видео клипы к песне подбираются автоматически сайтом youtube. Возможны некоторые несоответствия клипов песне.

    ↑ Спрятать рекламу ↑



    Download


     
    
    
    it aint over till its over
    by: lenny kravitz
    
    (i bet the rhythm guitar part is posted here in this site)
    lead guitar:
    
       D  A  C  G
    |--5--5--3--3------------------------------------------|
    |--7--5--5--3------------------------------------------|
    |--7--6--5--4------------------------------------------|
    |------------------------------------------------------|
    |------------------------------------------------------|
    |------------------------------------------------------|
    
    solo:
    |--------------------------------------------------|
    |-19b(21)-19b(18)-19b(18)-19b(18)-21-19------------|
    |--------------------------------------------------|
    |--------------------------------------------------|
    |--------------------------------------------------|
    |--------------------------------------------------|
    
    |--------------------------------------------------|
    |--------18---------------------------------------------|
    |-s17-19----19s---17b(19)-17b(18)-17b(18)-17b(18)-19-17-|
    |-------------------------------------------------------|
    |-------------------------------------------------------|
    |-------------------------------------------------------|
    
    |--------------------------------------------------|
    |--------------------------------------------------|
    |-12b(14)-14-14-14-12-14b(16)-14-14-12-------------|
    |--------------------------------------------------|
    |--------------------------------------------------|
    |--------------------------------------------------|
    
    |------------------------------------------------------|
    |------------------------------------------------------|
    |-18p17p0-17p15p0-15p14p0-14p12p0-12-12s14-14s15-15s17-|
    |------------------------------------------------------|
    |------------------------------------------------------|
    |------------------------------------------------------|
     

    Тональность:

    Нет текста!



    Назад
    Рекомендуем посмотреть другие песни исполнителя «Kravitz Lenny»:

    • Комментарии Facebook ()
    • Комментарии ВКонтакте



    Добавить в Избранное Браузера
    Сохранить здесь Очистить


    x

    0


    +
    -

    +
    -

    -

    Авторизация





    Зарегистрироваться

    M

    Дата и время

    • 13:17:57
       

    Социальные ссылки


    Наши приложения

    • Muzbank App Play Market
    • Muzbank Amazon App